Home » A » Against Me! »

Against Me! - Searching For A Former Clarity Tabs

Artists:  A B C D E F G H I J K L M N O P Q R S T U V W X Y Z # 

Searching For A Former Clarity Tabs

(ver. 3) Click to play this song!
Against Me!
After looking at some of the other versions, and finding them to be slightly off,
I came up with this. It seems pretty right to me.

e--------------------|
B--------------------|
G--------------------|
D-------7------h7----|
A---4---4---7---5----|
E---5-------7--------|


e--------------------|
B--------------------|
G-----------9---7----|
D-------7---9---7----|
A---4---4---7---5----|
E---5-------7--------|


e--------------------|
B--------------------|
G-----------9---7----|
D---7---7---9---7----|
A---4---4---7---5----|
E---5-5p0------------|

The strumming gets heavier near the end of the song, and some dud notes are hit.
This is just a quick tab, so dont expect perfection, its just what I use.
            
Submit corrections

↑ Back to top | Tablatures and chords for acoustic guitar and electric guitar, ukulele, drums are parodies/interpretations of the original songs. You may use it for private study, scholarship, research or language learning purposes only