» » »

Afterhours - The Ending Is The Greater Tabs

Artists:  A B C D E F G H I J K L M N O P Q R S T U V W X Y Z # 

The Ending Is The Greater Tabs

(ver. 1) Click to play this song!
Afterhours
 Rating:
4/5 (4 votes)

 The Ending Is The Greater lessons Tabs too difficult? Try these video lessons and learn fast
 
                AFTERHOURS

E LA FINE LA PUI IMPORTANTE/THE ENDING IS THE GREATER


standard tuning

|-----------|---------------------------------------------|
|-----------|---1-1-1-1--3-3-3-3--3-3-3-3-----------------|
|-----------|---2-2-2-2--0-0-0-0--0-0-0-0-----------------|
|-----------|---2-2-2-2--5-5-5-5--4-4-4-4--3h5-3h5-3h5-5\-|
|-----------|---0-0-0-0--5-5-5-5--5-5-5-5--3h5-3h5-3h5-5\-|
|-----------|------------------------------3-3-3-3-3-3-3\-|
 bass/drums        verse x2

|--------------------1-1-1-1-----------|
|--1-1-1-1--1-1-1-1--1-1-1-1--3-3-3-3--|
|--0-0-0-0--2-2-2-2--2-2-2-2--0-0-0-0--|
|--2-2-2-2--2-2-2-2--3-3-3-3--4-4-4-4--|
|--3-3-3-3--0-0-0-0--3-3-3-3--5-5-5-5--|
|--------------------------------------|
verse continued

|-----------3-3-3-3-------------------------|
|--1-1-1-1--3-3-3-3------3-------------4----|
|--2-2-2-2--0-0-0-0--------0---------0------|
|--2-2-2-2--0-0-0-0----4-----4-----5--------|
|--0-0-0-0--2-2-2-2--5---------5/6----------|
|-----------3-3-3-3-------------------------|
 verse continued

|--------------------------|-----------------------|
|--------------------------|-----------------------|
|--7b9r7-------------------|--7b9r7--5-------------|
|-------7-5-7---4h5p4------|-------7--7--4h5p4-5/7-|
|-------------7--------5/7-|-----------7-----------|
|--------------------------|-----------------------|
chorus              x2                     x1

|---------------------------|
|---------------------------|
|--7b9r7---------4h5p4-5/7--|
|-------7-5-7-7-------------|
|---------------------------|
|---------------------------|
chorus continued

there are a few alterations to the other verses, but the chords are the same so I won't 
tabbing.

|------------------------------------|
|------------------------------------|
|-------------------4h5p4h5p4h5------|
|--4h5p4h5p4h5-----------------5-5/7-|
|-------------5-5/7------------------|
|------------------------------------|
solo x2

|----------------------------------------------|
|-------8-8-10-8-------------------------------|
|--/9-9----------9--7-5---5-----7b9r7-5--------|
|-----------------------7---7-7--------7--5-7--|
|---------------------------------------7------|
|----------------------------------------------|
solo continued
repeat both solo parts again, then the chorus. that's everything. any comments 
etc, e-mail.
            
Submit corrections


        The Ending Is The Greater lessons Hard to play? Try these video lessons and learn fast The Ending Is The Greater lessons
        
↑ Back to top | Tablatures and chords for acoustic guitar and electric guitar, ukulele, drums are parodies/interpretations of the original songs. You may use it for private study, scholarship, research or language learning purposes only