» » »

Afterhours - Sulle Labbra Tabs

Artists:  A B C D E F G H I J K L M N O P Q R S T U V W X Y Z # 

Sulle Labbra Tabs

(ver. 1) Click to play this song!
Afterhours
 Rating:
4/5 (4 votes)

 Sulle Labbra lessons Tabs too difficult? Try these video lessons and learn fast
 
                AFTERHOURS

SULLE LABBRA


Dropped-D tuning

|--------------------------------------------------------------------------|
|--------------------------------------------------------------------------|
|--------------------------------------------------------------------------|
|---4-4-4-4--5-5-5-5--6-6-6-6--2-2-2-2--4-4-4-4--5-5-5-5--9-9-9-9-9-9-9-9--|
|---4-4-4-4--5-5-5-5--6-6-6-6--2-2-2-2--4-4-4-4--5-5-5-5--9-9-9-9-9-9-9-9--|
|---4-4-4-4--5-5-5-5--6-6-6-6--2-2-2-2--4-4-4-4--5-5-5-5--9-9-9-9-9-9-9-9--|
intro/verse

|------------------------------------------------------|
|------------------------------------------------------|
|---7-7-7-7-7-7--7-7-7-7-7--7-7-7-7-7--7-7-7-7-7--7----|
|---7-7-7-7-7-7--7-7-7-7-7--7-7-7-7-7--7-7-7-7-7--7----|
|---5-5-5-5-5-5--5-5-5-5-5--5-5-5-5-5--5-5-5-5-5--5----|
|---5-5-5-5-5-5--5-5-5-5-5--5-5-5-5-5--5-5-5-5-5--5----|
chorus      strum lightly  (this is based on a live clip)

|-----------------------------------------------------|
|-----------------------------------------------------|
|-----------------------------------------------------|
|----9--12--14--14-14-14-14-14-14-14-14-14-14-14-14---|
|----9--12--14--14-14-14-14-14-14-14-14-14-14-14-14---|
|----9--12--14--14-14-14-14-14-14-14-14-14-14-14-14---|
bridge

|--------------------------------------|
|--------------------------------------|
|--------------------------------------|
|---9-9-9-9-9-9-9-9-9-9-9-9-9-9-9-9-9--|
|---9-9-9-9-9-9-9-9-9-9-9-9-9-9-9-9-9--|
|---9-9-9-9-9-9-9-9-9-9-9-9-9-9-9-9-9--|
into verse

for violin solo, play the verse a few times and add the into verse part. finish by 
verse.
(i think there is a slight bit of lead guitar mixed in, but it's virtually impossible to 
and i can't tab it).

that's it. it's easy to figure out which parts go where. any comments, suggestions, 
me.
            
Submit corrections


        Sulle Labbra lessons Hard to play? Try these video lessons and learn fast Sulle Labbra lessons
        
↑ Back to top | Tablatures and chords for acoustic guitar and electric guitar, ukulele, drums are parodies/interpretations of the original songs. You may use it for private study, scholarship, research or language learning purposes only