Home » A » Afterhours »

Afterhours - Siete Proprio Dei Pulcini Tabs

Artists:  A B C D E F G H I J K L M N O P Q R S T U V W X Y Z # 

Siete Proprio Dei Pulcini Tabs

(ver. 1) Click to play this song!
Afterhours
 Rating:
4/5 (4 votes)
                AFTERHOURS

SIETE PROPRIO DEI PUCINI


standard tuning

|--------------------------|
|--------------------------|
|--------------------------|
|-----------------------5--|
|-------------------3h4----|
|--3-5-3-5-3-5-3-5---------|
intro and verse

guitar 2 hits strings behind bridge (i think)

CHORUS :
|----------------------------|
|----------------------------|
|----------------------5-6-7-|
|--5--7-7-5-7-5-7-5-7--------|
|----------------------------|
|----------------------------|
the chords played underneath is bass

CHORUS PT 2
|----------------------------------|
|----------------------------------|
|----------------------------------|
|--6-6-6-6-6---10--10--10--10--10--|
|--6-6-6-6-6---10--10--10--10--10--|
|--4-4-4-4-4----8---8---8---8---8--|

PART LEADING INTO SECOND HALF OF SONG (WHERE TEMPO SLOWS)
|-----------------------------------------|----------------|
|-----------------------------------------|----------------|
|-----------------------------------------|----------------|
|-----------------------------------------|--2----------2--|
|-----------------------------------------|--2--x-x-x-x-2--|
|-3-5-3-5-3-5-3-5-3-5-3-5-3-5-3-5-3-5-3b4-|--0--x-x-x-x-0--|
                                                                                         
     play until end
improv in E for outro. just make as much noise as possible.
            
Submit corrections

↑ Back to top | Tablatures and chords for acoustic guitar and electric guitar, ukulele, drums are parodies/interpretations of the original songs. You may use it for private study, scholarship, research or language learning purposes only