» » »

Afterhours - Non Si Esce Vivi Dagli Anni '80 Tabs

Artists:  A B C D E F G H I J K L M N O P Q R S T U V W X Y Z # 

Non Si Esce Vivi Dagli Anni '80 Tabs

(ver. 1) Click to play this song!
Afterhours
 Rating:
4/5 (4 votes)

 Non Si Esce Vivi Dagli Anni '80 lessons Tabs too difficult? Try these video lessons and learn fast
 
                Standard tuning: E A D G B e


Intro:

Guitar 1 light distorted w\effect: x4
-|--------------------------------------------------------------------------|-
-|--------------------------------------------------------------------------|-
-|--------------------------------------------------------------------------|-
-|-7---------------------------------7--------------------------------------|-
-|-7---------------------------------7--------------------------------------|-
-|-5---------------------------------5--------------------------------------|-
                                                                              
Guitar 2 light distorted enter on 3rd time: x2
-|--------------------------------------------------------------------------|-
-|--------------------------------------------------------------------------|-
-|--------------------------------------------------------------------------|-
-|-7-7-9---9-9-10--12-12-12-14-14-14-7-7-9---9-9-10--12-12-12-14-14-14------|-
-|-7-7-9---9-9-10--12-12-12-14-14-14-7-7-9---9-9-10--12-12-12-14-14-14------|-
-|-5-5-7---7-7-8---10-10-10-12-12-12-5-5-7---7-7-8---10-10-10-12-12-12------|-
                                                                              
Verse:

Guitar 1 w\effect: x2
-|--------------------------------------------------------------------------|-
-|---------------------8-8------8-8----------------------8-8------8-8-------|-
-|-------------------9--------9------------------------9--------9-----------|-
-|-----------------7--------7------------------------7--------7-------------|-
-|--------------------------------------------------------------------------|-
-|--------------------------------------------------------------------------|-
                                                                              
Guitar 2 w\effect: (it's something like this) x2
-|--------------------------------------------------------------------------|-
-|--------------------------------------------------------------------------|-
-|--------------------------------------------------------------------------|-
-|-----------------7h9-10-10b------------------------7h9-9-9b---------------|-
-|--------------------------------------------------------------------------|-
-|--------------------------------------------------------------------------|-
                                                                              

Chorus:

Guitar 1 light distorted:
-|--------------------------------------------------------------------------|-
-|--------------------------------------------------------------------------|-
-|--------------------------------------------------------------------------|-
-|-7--7--9-9-9-9-10-10-10-12-12--7--7--9-9-9-9-10-10-10-12-12---------------|-
-|-7--7--9-9-9-9-10-10-10-12-12--7--7--9-9-9-9-10-10-10-12-12---------------|-
-|-5--5--7-7-7-7-8--8--8--10-10--5--5--7-7-7-7-8--8--8--10-10---------------|-
                                                                              
Guitar 2:
-|--------------------------------------------------------------------------|-
-|-------------------------------------------------------8-10b11r10-8v------|-
-|------------------------10b11r10-10v--------------------------------------|-
-|--------------------------------------------------------------------------|-
-|--------------------------------------------------------------------------|-
-|--------------------------------------------------------------------------|-

Guitar 1:                                                                              
-|--------------------------------------------------------------------------|-
-|--------------------------------------------------------------------------|-
-|--------------------------------------------------------------------------|-
-|-7--7--9-9-9-9-10-10-10-12-12--7--7--9-9-9-9-10-10-10-12-12---------------|-
-|-7--7--9-9-9-9-10-10-10-12-12--7--7--9-9-9-9-10-10-10-12-12---------------|-
-|-5--5--7-7-7-7-8--8--8--10-10--5--5--7-7-7-7-8--8--8--10-10---------------|-

Guitar 2:
-|--------------------------------------------------------------------------|-
-|-------------------------------------------------------8-8h10-6h8---------|-
-|------------------------8-8b9r8v------------------------------------------|-
-|--------------------------------------------------------------------------|-
-|--------------------------------------------------------------------------|-
-|--------------------------------------------------------------------------|-

Guitar 1&2 w\more distortion: x2                                                                             
-|--------------------------------------------------------------------------|-
-|--------------------------------------------------------------------------|-
-|--------------------------------------------------------------------------|-
-|-7--7--9-9-9-9-10-10-10-12-12--7--7--9-9-9-9-10-10-10-12-12---------------|-
-|-7--7--9-9-9-9-10-10-10-12-12--7--7--9-9-9-9-10-10-10-12-12---------------|-
-|-5--5--7-7-7-7-8--8--8--10-10--5--5--7-7-7-7-8--8--8--10-10---------------|-

repeat intro verse and chorus (2nd part x3)

Outro:
-|--------------------------------------------------------------------------|-
-|--------------------------------------------------------------------------|-
-|--------------------------------------------------------------------------|-
-|-7---------------------------------7--------------------------------------|-
-|-7---------------------------------7--------------------------------------|-
-|-5---------------------------------5--------------------------------------|-
            
Submit corrections


        Non Si Esce Vivi Dagli Anni '80 lessons Hard to play? Try these video lessons and learn fast Non Si Esce Vivi Dagli Anni '80 lessons
        
↑ Back to top | Tablatures and chords for acoustic guitar and electric guitar, ukulele, drums are parodies/interpretations of the original songs. You may use it for private study, scholarship, research or language learning purposes only