Home » A » Afterhours »

Afterhours - Naufragio Sull Isola Del Tesoro Tabs

Artists:  A B C D E F G H I J K L M N O P Q R S T U V W X Y Z # 

Naufragio Sull Isola Del Tesoro Tabs

(ver. 1) Click to play this song!
Afterhours
 Rating:
4/5 (4 votes)
                AFTERHOURS

NAUFRAGIO SULL'ISOLA DEL TESORO


Drop-D tuning

|---1-------1--------|
|-----3-------3------|
|-------3-------3----|
|--------------------|
|--------------------|
|--------------------|
intro

|--1----1----------6-6-------6-6---|
|---3----3---/8-8--8-8--8-8--8-8---|
|----3----3--/8-8-------8-8--------|
|----------------------------------|
|----------------------------------|
|----------------------------------|
verse    x2    play loosely

|---3--3-----3--3--/--6--6-----6---|
|---4--4--4--4--4--/--7--7--7--7---|
|---5--5--5-------5/--8-----8--8---|
|----------------------------------|
|----------------------------------|
|----------------------------------|
verse continued     

|----------------------------------------------|
|----------------------------------------------|
|---%---%---%---%-----@---@---@----@---@---@---|
|---8---5---4---1-----8---9---11---5---4---1---|
|---8---5---4---1-----8---9---11---5---4---1---|
|---8---5---4---1-----8---9---11---5---4---1---|
chorus (?)     %=play 16 times              @=play 8 times

repeat verse, than play first half of chorus in half-time, then second part normal.
end on last chord.
            
Submit corrections

↑ Back to top | Tablatures and chords for acoustic guitar and electric guitar, ukulele, drums are parodies/interpretations of the original songs. You may use it for private study, scholarship, research or language learning purposes only