Home » A » Afterhours »

Afterhours - Male In Polvere Sparkle Tabs

Artists:  A B C D E F G H I J K L M N O P Q R S T U V W X Y Z # 

Male In Polvere Sparkle Tabs

(ver. 1) Click to play this song!
Afterhours
 Rating:
4/5 (4 votes)
                AFTERHOURS

MALE IN POLVERE / SPARKLE


standard tuning

|--------------------------------|
|---1--1---1-1-1---1--1---1-1-1--|
|---0--0---0-0-0---0--0---0-0-0--|
|---2--2---2-2-2---2--2---2-2-2--|
|---3--3---3-3-3---3--3---3-3-3--|
|--------------------------------|
intro

|---------------------1--1---1--1--1--|
|--1--1--1------------1--1---1--1--1--|
|--0--0--0--0--0--0---2--2---2--2--2--|
|--2--2--2--2--2--2---3--3---3--3--3--|
|--3--3--3--2--2--2---3--3---3--3--3--|
|-----------0--0--0---1--1---1--1--1--|
verse part 1 

|----------------1--1--1--1--1--|
|---1--1--1--1---1--1--1--1--1--|
|---2--2--2--2---2--2--2--2--2--|
|---2--2--2--2---3--3--3--3--3--|
|---0--0--0--0---3--3--3--3--3--|
|----------------1--1--1--1--1--|
verse part 2

|------------------3--3--3--3--3--1--1--1--1--1---2--2--2--2--2---|
|---1--1--1--1--1--3--3--3--3--3--1--1--1--1--1---3--3--3--3--3---|
|---2--2--2--2--2--0--0--0--0--0--2--2--2--2--2---2--2--2--2--2---|
|---2--2--2--2--2--0--0--0--0--0--3--3--3--3--3---0--0--0--0--0---|
|---0--0--0--0--0--2--2--2--2--2--3--3--3--3--3-------------------|
|------------------3--3--3--3--3--1--1--1--1--1-------------------|
chorus                                

|------------------3--3--3--3--3--1--1--1--1--1--1--1--1--1--1----|
|---1--1--1--1--1--3--3--3--3--3--1--1--1--1--1--1--1--1--1--1----|
|---2--2--2--2--2--0--0--0--0--0--2--2--2--2--2--2--2--2--2--2----|
|---2--2--2--2--2--0--0--0--0--0--3--3--3--3--3--3--3--3--3--3----|
|---0--0--0--0--0--2--2--2--2--2--3--3--3--3--3--3--3--3--3--3----|
|------------------3--3--3--3--3--1--1--1--1--1--1--1--1--1--1----|
chorus    part 2

repeat the verses parts, and for second chorus just play part 2 of the chorus.
play verse until end (end on F)
            
Submit corrections

↑ Back to top | Tablatures and chords for acoustic guitar and electric guitar, ukulele, drums are parodies/interpretations of the original songs. You may use it for private study, scholarship, research or language learning purposes only