» » »

Afterhours - Bianca Tabs

Artists:  A B C D E F G H I J K L M N O P Q R S T U V W X Y Z # 

Bianca Tabs

(ver. 1) Click to play this song!
Afterhours
 Rating:
4/5 (4 votes)

 Bianca lessons Tabs too difficult? Try these video lessons and learn fast
 
                AFTERHOURS

BIANCA


standard tuning

CHORDS USED
    D      A       Bm     G     F#m
|---0---------------------3--------2---|
|---3------2-------3------3--------2---|
|---2------2-------4------0--------2---|
|---0------2-------4------0--------4---|
|----------0-------2------2--------4---|
|-------------------------3--------2---|

|-----------------------------------|
|-----------------------------------|
|-----------------4------0----------|
|-------2-------0-----------4-------|
|---------------------2----------0--|
|----3------------------------------|
intro/ verse

OVER INTRO:    D      A      G


G             D        Bm          A
Sei il colore che        non ho
   G         D
e non catturerò
     Bm                A
ma se ci fosse un metodo
G
vorrei che fosse il mio

D    A   G

G            D             Bm   A
fanne quel che vuoi, di noi
    G           D
me l'hai insegnato tu
         Bm                  A
se c'è una cosa che è immorale
G
è la ban*lità

D

Bm
lo sai
A
lo sai

    D               F#m    G
che tu sei troppo bianca per restare
mano nella mano con te stessa
e non voglio certo che tu sia
la mia più bella cosa mai successa

(end chorus on A chord)

VERSE 2 SAME AS VERSE 1, REPEAT ALL ACOUSTIC GUITAR PARTS THE SAME

|--------5------|-----------|------5----|-------2------|------3-----|
|------7---7----|------3----|----7---7--|-----3---3----|----3---3---|
|----7----------|----4---4--|--7--------|---4----------|--0---------|
|---------------|--5--------|-----------|--------------|------------|
|---------------|-----------|-----------|--------------|------------|
|---------------|-----------|-----------|--------------|------------|
guitar 2

sei il colore che non ho
e che vorrei essere io
ma se ti rende libera
ti regalo il mio

lo sai
lo sai
che tu sei troppo bianca per restare
mano nella mano con te stessa
e non voglio certo che tu sia
la mia più bella cosa mai successa

tu sei troppo bianca per restare
mano nella mano con te stessa
e non voglio certo che tu sia
la mia più bella cosa mai successa

vedrai . . .
            
Submit corrections


        Bianca lessons Hard to play? Try these video lessons and learn fast Bianca lessons
        
↑ Back to top | Tablatures and chords for acoustic guitar and electric guitar, ukulele, drums are parodies/interpretations of the original songs. You may use it for private study, scholarship, research or language learning purposes only