Home » A » Ace »

Ace - How Long Bass

Artists:  A B C D E F G H I J K L M N O P Q R S T U V W X Y Z # 

How Long Bass

(ver. 2) Click to play this song!
Ace
Gtr I (E A D G) - 'Terry "Tex" Comer - Bass'

    [Intro]
    Q=123
    4/4
    Gtr I
     Q  E E Q  E E   Q  E E Q  E E   Q  E E Q  E E   Q  E E E E E E
G||----------------|---------------|---------------|-----------------|
D||o---------------|---------------|---------------|-----------------|
A||o-1----1-1----1-|-1----1-1----1-|-1----1-1----1-|-1----1-1---1----|
E||----------------|---------------|---------------|----------1---1--|

 
                                                  1.
   Q  E E Q  E E   Q  E E Q  E E   Q  E E Q  E E   Q  E E E E E E
G|---------------|---------------|---------------|-----------------||
D|---------------|---------------|---------------|----------------o||
A|-1----1-1----1-|-1----1-1------|-1----1-1----1-|-1----1-1-------o||
E|---------------|-------------1-|---------------|----------1---1--||


                  [Chorus]
  2.
   Q.   E +H        Q  E E +Q.   E   Q  E E +H       Q  E E +Q.   E
G|---------------||----------------|---------------|----------------|
D|---------------||----------------|---------------|----------------|
A|-1----2-(2)----||-3----3-(3)-----|---------------|----------------|
E|---------------||--------------3-|-3----3-(3)----|-1----1-(1)---1-|


   Q  E E +Q   E E   Q  E E +Q.   E   Q  E E +Q   Q
G|-----------------|----------------|----------------|
D|-----------------|----------------|----------------|
A|-------------1---|-3----3-(3)-----|------1-(1)--3--|
E|-1----3-(3)------|--------------3-|-3--------------|


                                      [1st & 2nd Verses]
   Q  E E +Q   E E   Q  E E +Q   E E     Q  E E Q  E E
G|-----------------|-----------------||----------------|
D|-----------------|-----------------||o---------------|
A|-----------------|-------------1---||o-1----1-1----1-|
E|-1----1-(1)----1-|-1----3-(3)----3-||----------------|


   Q  E E Q  E E   Q  E E Q  E E   Q  E E E E E E
G|---------------|---------------|----------------|
D|---------------|---------------|----------------|
A|-1----1-1------|-1----1-1----1-|-1----1-1-------|
E|-------------1-|---------------|----------1---1-|


   Q  E E Q  E E   Q  E E Q  E E   Q  E E Q  E E
G|---------------|---------------|---------------|
D|---------------|---------------|---------------|
A|-1----1-1----1-|-1----1-1------|-1----1-1----1-|
E|---------------|-------------1-|---------------|


                                      [Chorus]
   1.                2.
   Q  E E E E E E     Q.   E +H        Q  E E +Q   E E
G|-----------------||---------------||-----------------|
D|----------------o||---------------||-----------------|
A|-1----1-1-------o||-1----2-(2)----||-3----3-(3)----3-|
E|----------1---1--||---------------||-----------------|


   Q  E E +Q   E E   Q  E E +Q   E E   Q.   E +Q   E E
G|-----------------|-----------------|-----------------|
D|-----------------|-----------------|-----------------|
A|-------------3---|-----------------|-------------1---|
E|-3----3-(3)----3-|-1----1-(1)----1-|-1----3-(3)------|


   Q  E E +Q.   E   Q  E E +Q   Q    Q  E E +Q   E E   Q  E E Q  E E
G|----------------|----------------|-----------------|---------------||
D|----------------|----------------|-----------------|---------------||
A|-3----3-(3)-----|------1-(1)--3--|---------------3-|---------------||
E|--------------3-|-3--------------|-1----1-(1)------|-1----3-3----3-||


   [Guitar Solo]
     Q  E E H      Q  E E Q  E E   Q  E E H
G||--------------|---------------|-------------|
D||o-------------|---------------|-------------|
A||o-3----3-3----|-3----3-3----3-|-3----3-3----|
E||--------------|---------------|-------------|


   Q  E E +E  E E E   Q  E E Q  E E   Q  E E Q  E E
G|------------------|---------------|---------------|
D|------------------|---------------|---------------|
A|-3----3-(3)---3---|-3----3-3----3-|-3----3-3------|
E|------------3---3-|---------------|-------------3-|


                  1.                 2.
   Q  E E Q  E E   Q  E E E E E E     Q  E E E E E E
G|---------------|-----------------||----------------||
D|---------------|----------------o||--------0-------||
A|-3----3-3----3-|-3----3-3---3---o||-3----3-----3---||
E|---------------|----------3---3--||----------------||


  [3rd Verse]
     Q  E E Q  E E   Q  E E Q  E E   Q  E E Q  E E
G||----------------|---------------|---------------|
D||o---------------|---------------|---------------|
A||o-1----1-1----1-|-1----1-1------|-1----1-1----1-|
E||----------------|-------------1-|---------------|


   Q  E E E E E E   Q  E E Q  E E   Q  E E Q  E E
G|----------------|---------------|---------------|
D|----------------|---------------|---------------|
A|-1----1-1---1---|-1----1-1----1-|-1----1-1------|
E|----------1---1-|---------------|-------------1-|


                  1.                 2.
   Q  E E Q  E E   Q  E E E E E E     Q.   E +Q   E E
G|---------------|-----------------||-----------------||
D|---------------|----------------o||-----------------||
A|-1----1-1----1-|-1----1-1-----1-o||-1----2-(2)----2-||
E|---------------|----------1-3----||-----------------||


 [Out-Chorus]
   Q  E E +Q   E E   Q  E E +Q   E E   Q  E E +Q   E E   Q  E E Q  E E
G|-----------------|-----------------|-----------------|---------------|
D|-----------------|-----------------|-----------------|---------------|
A|-3----3-(3)------|------1-(1)--3---|------1-(1)--3---|---------------|
E|---------------3-|-3-------------1-|-3-------------1-|-1----1-3----3-|


   Q  E E +Q   E E   Q  E E +Q   Q    Q  E E Q  E E   Q  E E Q  E E
G|-----------------|----------------|---------------|---------------|
D|-----------------|----------------|---------------|---------------|
A|-3----3-(3)------|------1-(1)--3--|-------------3-|-----------1-1-|
E|---------------3-|-3--------------|-1----1-1------|-1----3-3------|


   Q  E E +Q   Q    Q  E E +Q   Q    Q  E E Q.   E   Q.   E +Q   Q
G|----------------|----------------|---------------|----------------|
D|----------------|----------------|---------------|----------------|
A|-3----3-(3)--1--|------1-(1)--3--|---------------|-------------1--|
E|----------------|-3--------------|-1----1-1----1-|-1----3-(3)-----|


   Q  E E +Q.   E   Q.   E +Q   Q    Q  E E Q  E E   Q  E E Q  E E
G|----------------|----------------|---------------|---------------|
D|----------------|----------------|---------------|---------------|
A|-3----3-(3)-----|------1-(1)--3--|-------------3-|---------------|
E|--------------3-|-3--------------|-1----1-1------|-1----3-3----3-|


   Q  E E +Q.   E   Q  E E +Q   E E   Q  E E Q.   E   Q.   E +Q   Q
G|----------------|-----------------|---------------|----------------*|
D|----------------|-----------------|---------------|----------------*|
A|-3----3-(3)---3-|-------------1---|---------------|-------------1--*|
E|----------------|-3----3-(3)----3-|-1----1-1----1-|-1----3-(3)-----*|

            
Submit corrections

↑ Back to top | Tablatures and chords for acoustic guitar and electric guitar, ukulele, drums are parodies/interpretations of the original songs. You may use it for private study, scholarship, research or language learning purposes only