Home » A » Ace »

Ace - How Long Bass

Artists:  A B C D E F G H I J K L M N O P Q R S T U V W X Y Z # 

How Long Bass

(ver. 1) Click to play this song!
Ace
INTRO
******   
  Bass                                                  Drums
G|---------------------------------------------|-------|---------------------------------------------------|
D|---------------------------------------------|-------|---------------------------------------------------|
A|-1---1-1---1-1---1-1---1-1---1-1---1-1---1-1-|---1---|-1---1-1---1-1---1-1-----1---1-1---1-1---1-1---1---|
E|---------------------------------------------|-1---1-|-----------------------1---------------------1---1-|

Keyboard 
G|---------------------------------------------|-----------------------------------------------|
D|---------------------------------------------|-----------------------------------------------|
A|-1---1-1---1-1---1-1-----1---1-1---1-1---1-1-|---1---1-1---1-1---1-1-----1---1-1---1-1---2-2-|
E|-----------------------1---------------------|-1-----------------------1---------------------|


------------------------
00:33
CHORUS
*******
  How long  has this been going on.           How long  has this been going on 
G|--------|----------|--------|--------------|------|-----------|--------|----------|-----|
D|--------|----------|--------|--------------|------|-----------|--------|----------|-----|
A|-3--3-3-|----------|--------|----------1-1-|-3--3-|------1--3-|--------|----------|-1---|
E|--------|-3-3--3-3-|-1--1-1-|-1-1--3-3-----|------|-3-3-------|-1--1-1-|-1-1--3-3-|---3-|


------------------------
00:48
VERSE 1
********
Well, your friends..............                 But I can't help..............
G|---------------------|-----------------------------|---------------------|-----------------------------|
D|---------------------|-----------------------------|---------------------|-----------------------------|
A|-1---1-1---1-1---1-1-|---1---1-1---1-1---1-1---1---|-1---1-1---1-1---1-1-|-1-1---1-1---1-1---1-1---1---|
E|---------------------|-1---------------------1---1-|---------------------|-----------------------1---1-|

And you said....................             But there ain't....................     
G|---------------------|-----------------------------|---------------------|-----------------------|
D|---------------------|-----------------------------|---------------------|-----------------------|
A|-1---1-1---1-1---1-1-|---1---1-1---1-1---1-1---1---|-1---1-1---1-1---1-1-|-1-1---1-1---1-1---2-2-|
E|---------------------|-1---------------------1---1-|---------------------|-----------------------|


------------------------
01:19
CHORUS
*******
  How long  has this been going on.         How long  has this been going on 
G|--------|--------|----------|------------|--------|-------------|--------|----------|-----|
D|--------|--------|----------|------------|--------|-------------|--------|----------|-----|
A|-3--3-3-|--------|----------|----------1-|-3--3-3-|------1-1--3-|--------|-3--------|---3-|
E|--------|-3--3-3-|-3-1--1-1-|-1-1--3-3---|--------|-3-3---------|-1--1-1-|---1--3-3-|-3---|


------------------------
01:35
SOLO
*****
G|-------------------------------------|---------------------------------------------------------|
D|-------------------------------------|---------------------------------------------------------|
A|-3-3---3---3-3---3-3---3-3---3---3-3-|---1----3---3-3---3-3---3-3-----3---3-3---3-3---3----1---|
E|-------------------------------------|-3---3------------------------3--------------------3---3-|

01:50                                                                                        Ohhh
G|--------------------------------------------|-------------------------------------------------------|
D|--------------------------------------------|---------------------------------------------------s---|
A|-3--3-3---3-3---3-3---3-3---3-3---3-3---3-3-|---1----3---3-3---3-3---3-3---3-3---3-3---3-3---3-3\-3-|
E|--------------------------------------------|-3---3-------------------------------------------------|


------------------------
02:06
VERSE 2
********
Well, your friends..............                 But I can't help..............
G|---------------------|-----------------------------|---------------------|-----------------------------|
D|---------------------|-----------------------------|---------------------|-----------------------------|
A|-1---1-1---1-1---1-1-|---1---1-1---1-1---1-1---1---|-1---1-1---1-1---1-1-|-1-1---1-1---1-1---1-1---1---|
E|---------------------|-1---------------------1---1-|---------------------|-----------------------1---1-|

And you said....................             But there ain't....................     
G|---------------------|-----------------------------|---------------------|-----------------------|
D|---------------------|-----------------------------|---------------------|-----------------------|
A|-1---1-1---1-1---1-1-|---1---1-1---1-1---1-1---1---|-1---1-1---1-1---1-1-|-1-1---1-1---1-1---2-2-|
E|---------------------|-1---------------------1---1-|---------------------|-----------------------|


------------------------
02:37
CHORUS
*******
  How long  has this been going on.           How long  has this been going on 
G|--------|------------|--------|------------|--------|-----------|--------|----------|-----|
D|--------|------------|--------|------------|--------|-----------|--------|----------|-----|
A|-3--3-3-|------1-3---|--------|----------1-|-3--3-3-|------1--3-|--------|----------|-1---|
E|--------|-3-3------3-|-1--1-1-|-1-1--3-3---|--------|-3-3-------|-1--1-1-|-1-1--3-3-|---3-|

  How long  has this been going on.         How long  has this been going on 
G|--------|----------|--------|----------|--------|-------------|--------|--------|-----|
D|--------|----------|--------|----------|--------|-------------|--------|--------|-----|
A|-3--3-3-|-1----1-3-|--------|--------1-|-3--3-3-|-1------1--3-|--------|--------|-1---|
E|--------|---3------|-1--1-1-|-1--3-3---|--------|---3-3-------|-1--1-1-|-1--3-3-|---3-|

  How long  has this been going on.         How long  has this been going on 
G|----------------|----------|-----------------|-------|--------|-----|
D|----------------|----------|-----------------|-------|--------|-----|
A|-3--3-3---1-----|-1-1--3---|-----------------|-----1-|-3--3-3-|-1---|
E|--------3---3-3-|--------3-|-1--1-1-1--1-1-1-|-3-3---|--------|---3-|
            
Submit corrections

↑ Back to top | Tablatures and chords for acoustic guitar and electric guitar, ukulele, drums are parodies/interpretations of the original songs. You may use it for private study, scholarship, research or language learning purposes only