Home » A » Aaron Tippin »

Aaron Tippin - People Like Us Tabs

Artists:  A B C D E F G H I J K L M N O P Q R S T U V W X Y Z # 

People Like Us Tabs

(ver. 3) Click to play this song!
Aaron Tippin
Aaron Tippin: People Like Us (Intro)
This is repeated two times for the intro and again in other 
parts of the song.

                                                       
E||-------------------------|-------------------------|
B||-------------------------|-------------------------|
G||-------------------------|-------------------------|
D||--1--3--1--3--x--1--3----|--1--3--1--3--x--1--3----|
A||-------------------------|-------------------------|
E||-------------------------|-------------------------|


|-------------------------|--3br--------------||
|-------------------------|--3br---1----------||
|--1--3--1--3--x--1--3----|----------3--1--3--||
|-------------------------|-------------------||
|-------------------------|-------------------||

            
Submit corrections

↑ Back to top | Tablatures and chords for acoustic guitar and electric guitar, ukulele, drums are parodies/interpretations of the original songs. You may use it for private study, scholarship, research or language learning purposes only