Home » A » Aaron Tippin »

Aaron Tippin - People Like Us Tabs

Artists:  A B C D E F G H I J K L M N O P Q R S T U V W X Y Z # 

People Like Us Tabs

(ver. 1) Click to play this song!
Aaron Tippin
Capo 1st

E-------------------------|-------------------------|
B-------------------------|-------------------------|
G-------------------------|-------------------------|
D--0--2--0--2--x--0--2----|--0--2--0--2--x--0--2----|
A-------------------------|-------------------------|
E-------------------------|-------------------------|

|-------------------------|-------------------|
|-------------------------|--2br--------------|
|-------------------------|--2br---0----------|
|--0--2--0--2--x--0--2----|----------2--0--2--|
|-------------------------|-------------------|
|-------------------------|-------------------|




Intro: E G A E G A

          E
There's a pool hall juke box, sawdust floors

Three plays for a quarter, and we still want more
               A
Yeah there's a reason for fast cars

And that double yellow line
E                    B                     E
Heartbreak songs and good cheap two dollar wine


Chorus:
        A
'Cuz of people like us

There's honky tonk music, long neck bottles
                 E
Rusty old pickup trucks
      G                       A
Oh at last call the lights go up
                                   E  G A
And its all because of people like us


        E
I got a second hand boat, the last numbers in jail

There's second hand smoke, everywhere i exhale
        A
There's greasy little truckstops, all night di
E                   B               E
No-tell Motel's and everybody knows why


Chorus:
        A
'Cuz of people like us

There's honky tonk music, long neck bottles
                 E
Rusty old pickup trucks
      G                       A
Oh at last call the lights go up
                                   E
And its all because of people like us

Lead: G A E G A 

Chorus:
        A
'Cuz of people like us

There's honkey tonk music, long neck bottles
                 E
Rusty old pickup trucks
      G                       A
Oh at last call the lights go up
        A          A
'Cuz of people ... people like us

There's honkey tonk music, long neck bottles
                 E
Rusty old pickup trucks
       G                       A
And at last call the lights go up
                                   E  G  A
And its all because of people like us
                       E  G  A
Late night people like us
                       E  G  A
Hard lovin people like us
                                  E  G  A
Hahah, just fun lovin people like us
                      E  G  A
Hillbilly people like us!
            
Submit corrections

↑ Back to top | Tablatures and chords for acoustic guitar and electric guitar, ukulele, drums are parodies/interpretations of the original songs. You may use it for private study, scholarship, research or language learning purposes only