Home » A » Aaron Tippin »

Aaron Tippin - Kiss This Tabs

Artists:  A B C D E F G H I J K L M N O P Q R S T U V W X Y Z # 

Kiss This Tabs

(ver. 1) Click to play this song!
Aaron Tippin
br  =   bend & release                     x   =   dead note

/   =   slide up                           \   =   slide down

~   =   vibrato                            nh  =   Natural Harmonic

ah  =   Artificial Harmonic		   pbr =   pre-bend & release

bh  =   Bend and hold			   rb  =   Release bend

***********************************************************************

Intro:

E------------------------------------------------------------------
B------------------------------------------------------------------
G--2-4-4----------2-4-4---------------------------2----2-4-4-------
D--2-4-4----------2-4-4-----------------2/5-7-6-4-2-2--2-4-4-------
A---------------2--------------2-2-2----2/5-5-4-2-0-2--------------
E--------2-5b-2---------2-5b-2---0-0-/4-------------0--------2-5b-2

E------------------------------------------------------------------
B------------------------------------------------------------------
G----2-4-4---------------------------------------------------------
D----2-4-4-----------------2/5-7-6-4-2-2-2-------------------------
A--2--------------2-2-2----2/5-5-4-2-0-0-0-6-4---------------------
E----------2-5b-2---0-0-/4-----------------4-2---------------------
            
Submit corrections

↑ Back to top | Tablatures and chords for acoustic guitar and electric guitar, ukulele, drums are parodies/interpretations of the original songs. You may use it for private study, scholarship, research or language learning purposes only