» » »

5 Seconds Of Summer - Meet You There Bass

Artists:  A B C D E F G H I J K L M N O P Q R S T U V W X Y Z # 

Meet You There Bass

(ver. 1) Click to play this song!
5 Seconds Of Summer
 Rating:
4.4/5 (8 votes)

 Meet You There lessons Tabs too difficult? Try these video lessons and learn fast
 
                [Intro]

G|---------------------------------|------------------------------------------|
D|----------------6---2----4-------|------------------------------------------|
A|------2---4-----------0----2--0--|-------------------2---4------------------|
E|--0h2----------------------------|---5--4--2--0---2-2--4--------------------|


[Verse]

G|---------------------------------|------------------------------------------|
D|----------------6---2----4-------|------------------------------------------|
A|------2---4-----------0----2--0--|-------------------2---4------------------|
E|--0h2----------------------------|---5--4--2--0---2-2--4--------------------|   x4


[Chorus]
(no bass)
A         C#m                  G#m
So you go your way and I'll go mine
             A
And if we're meant to, I'll meet you there
A        C#m                   G#m
We can't speed up the hands of time
             A
But if we're meant to
        N.C.
I'll meet you there


[Post-Chorus]

G|-----------------|-----------------|-----------------|-----------------|
D|-----------------|-----------------|-----------------|-----------------|
A|-----------------|-----------------|-----------------|-----------------|
E|----5----2----4--|----5----2----4--|----5----2----4--|----5----2----4--|


[Verse 2]

G|--------------------------------|-------------------------------------------|
D|----------------6---2----4------|-------------------------------------------|
A|------2---4-----------0----2--0-|--------------------2---4------------------|
E|--0h2---------------------------|---5--4--2--0---2-2--4---------------------|   x4


[Chorus]
(no bass)
A         C#m                  G#m
So you go your way and I'll go mine
             A
And if we're meant to, I'll meet you there
A        C#m                   G#m
We can't speed up the hands of time
             A
But if we're meant to
        N.C.
I'll meet you there


[Post Chorus]

G|-----------------|-----------------|-----------------|-----------------|
D|-----------------|-----------------|-----------------|-----------------|
A|-----------------|-----------------|-----------------|-----------------|
E|----5----2----4--|----5----2----4--|----5----2----4--|----5----2----4--|


[Bridge]

G|-----2--1--------|-----2--1---------|-----2--1------|----2--1------|
D|---2-------------|---2--------------|---2-----------|---2----------|
A|-----------------|------------------|---------------|--------------|
E|-----------------|------------------|---------------|--------------|


[Chorus]
(no bass)
A         C#m                  G#m
So you go your way and I'll go mine
             A
And if we're meant to, I'll meet you there
A        C#m                   G#m
We can't speed up the hands of time
             A
But if we're meant to
        N.C.
I'll meet you there


[Post Chorus]

G|-----------------|-----------------|-----------------|-----------------|
D|-----------------|-----------------|-----------------|-----------------|
A|-----------------|-----------------|-----------------|-----------------|
E|----5----2----4--|----5----2----4--|----5----2----4--|----5----2----4--|  x2

            
Submit corrections


        Meet You There lessons Hard to play? Try these video lessons and learn fast Meet You There lessons
        
↑ Back to top | Tablatures and chords for acoustic guitar and electric guitar, ukulele, drums are parodies/interpretations of the original songs. You may use it for private study, scholarship, research or language learning purposes only