Home » # » 5 Seconds Of Summer »

5 Seconds Of Summer - Unpredictable Bass

Artists:  A B C D E F G H I J K L M N O P Q R S T U V W X Y Z # 

Unpredictable Bass

(ver. 1) Click to play this song!
5 Seconds Of Summer
-------------------------------------------------------------------------------
                             UNPREDICTABLE  5 Seconds of Summer
-------------------------------------------------------------------------------

This is my first tab so it may not be completely correct, but it works.

Tuning: standard

Intro
G|----------------------------------|
D|----------------------------------|
A|--2-2-2-2-------------------------|
E|---------2-0-0022-4-4-4-4-20-0022-| x2

Verse
G|----------------------------------|
D|----------------------------------|
A|--2-2-2-2-------------------------|
E|---------2-0-0022-4-4-4-4-20-0022-| x4


Chorus
G|-------------------------|
D|-------------------------|
A|-22222-------------------|
E|-------22222-44444-22222-| x4

Verse
Chorus

Guitar solo
G|----------------------------------|
D|----------------------------------|
A|-22222222-------------------------|
E|---------222222224444444422222222-| x2

Bridge 
G|--------------------------------------------------------|
D|--------------------------------------------------------|
A|--------------------------------------------------------|
E|44-44---------00-00----------22-22-----4444444422222222-|

Chorus (1st half no bass)

Outro 
G|-----------------------------------------------------------------|
D|-----------------------------------------------------------------|
A|-22222222---------------------------22222222---------------------|
E|---------22222222-44444444-22222222----------22222222-44444444-2-|

===============================================================================
            
Submit corrections

↑ Back to top | Tablatures and chords for acoustic guitar and electric guitar, ukulele, drums are parodies/interpretations of the original songs. You may use it for private study, scholarship, research or language learning purposes only