Home » # » 5 Seconds Of Summer »

5 Seconds Of Summer - Shes Kinda Hot Bass

Artists:  A B C D E F G H I J K L M N O P Q R S T U V W X Y Z # 

Shes Kinda Hot Bass

(ver. 1) Click to play this song!
5 Seconds Of Summer
  Verse 0:24
G|-----------------------------------------------------------------|
D|-----------------------------------------------------------------|
A|-7-------------------------------7-------------------------------|
E|-----------------------------------------------------------------|
   1 + 2 + 3 + 4 + 1 + 2 + 3 + 4 + 1 + 2 + 3 + 4 + 1 + 2 + 3 + 4 +

G|-----------------------------------------------------------------|
D|-7---------------------------------------------------------------|
A|---------------------------------7-------------------------------|
E|-----------------------------------------------------------------|
   1 + 2 + 3 + 4 + 1 + 2 + 3 + 4 + 1 + 2 + 3 + 4 + 1 + 2 + 3 + 4 +

G|-----------------------------------------------------------------|
D|-------6---------------4-----------------------------------------|
A|---6-9-----9-6-----4-7-----7-4-------2-4---2---------2-4---2-----|
E|-7-------------9-5-------------5-0-4---------4-2-0-4---------4-2-|
   1 + 2 + 3 + 4 + 1 + 2 + 3 + 4 + 1 + 2 + 3 + 4 + 1 + 2 + 3 + 4 +

  GO! 0:48
G|-----------------------------------------------------------------|
D|-----------------------------------------------------------------|
A|-----------------------------------------------------------------|
E|-7-7-7-7-7-7-7-6-5-5-5-5-5-5-4-2-0-------------------------------|
   1 + 2 + 3 + 4 + 1 + 2 + 3 + 4 + 1 + 2 + 3 + 4 + 1 + 2 + 3 + 4 +

Rest

  Verse 1:13
G|-----------------------------------------------------------------|
D|-------6---------------4-----------------------------------------|
A|---6-9-----9-6-----4-7-----7-4-------2-4---2---------------------|
E|-7-------------9-5-------------5-0-4---------4-2-0---------------|
   1 + 2 + 3 + 4 + 1 + 2 + 3 + 4 + 1 + 2 + 3 + 4 + 1 + 2 + 3 + 4 +

  Chorus 1:21
G|-----------------------------------------------------------------|
D|---------------------------------------------------------6-6-9-9-|
A|-5-7-7-7-7-7-7-7-7-7-7-7-5-7-7-7-5-7-7-7-7-7-7-7-7-7-9-9---------|
E|-----------------------------------------------------------------|
   1 + 2 + 3 + 4 + 1 + 2 + 3 + 4 + 1 + 2 + 3 + 4 + 1 + 2 + 3 + 4 +

G|-----------------------------------------------------------------|
D|-----------------------------------------------------------------|
A|---------------------------------5-7-7-7-5-7-7-7-5-7-7-7-7-7-7-7-|
E|-5-5-5-5-5-5-5-5-4-5-5-5-5-5-7-7---------------------------------|
   1 + 2 + 3 + 4 + 1 + 2 + 3 + 4 + 1 + 2 + 3 + 4 + 1 + 2 + 3 + 4 +

G|-----------------------------------------------------------------|
D|-----------------------------------------------------------------|
A|---------------------------------5-7-7-7-5-7-7-7-----------------|
E|-7-7-7-7-7-7-7-6-5-5-5-5-5-5-5-5-----------------x-7-7-7-7-7-7-7-|
   1 + 2 + 3 + 4 + 1 + 2 + 3 + 4 + 1 + 2 + 3 + 4 + 1 + 2 + 3 + 4 +

  Solo 1:45
G|-------------------------------------------------------------------|
D|o-----------------------------------------------------------------o|
A|o-0-0-0-0-0-0-0-0-0-0-0-0-0-0-0-0---------------------------------o|
E|----------------------------------0-0-0-0-0-0-0-0-0-0-0-0-0-0-0-0--|x2
    1 + 2 + 3 + 4 + 1 + 2 + 3 + 4 + 1 + 2 + 3 + 4 + 1 + 2 + 3 + 4 +

G|-----------------------------------------------------------------|
D|-----------------------------------------------------------------|
A|---------------------------------5-7-7-7-5-7-7-7-----------------|
E|-7-7-7-7-7-7-7-6-5-5-5-5-5-5-5-5-----------------x-7-7-7-7-7-7-7-|
   1 + 2 + 3 + 4 + 1 + 2 + 3 + 4 + 1 + 2 + 3 + 4 + 1 + 2 + 3 + 4 +

Rest

  Kings & The Queens... 2:26
G|-----------------------------------------------------------------|
D|-------6---------------4-----------------------------------------|
A|---6-9-----9-6-----4-7-----7-4-------2-4---2---------2-4---2-----|
E|-7-------------9-5-------------5-0-4---------4-2-0-4---------4-2-|
   1 + 2 + 3 + 4 + 1 + 2 + 3 + 4 + 1 + 2 + 3 + 4 + 1 + 2 + 3 + 4 +

  Chorus 2:34
G|-----------------------------------------------------------------|
D|---------------------------------------------------------6-6-9-9-|
A|-5-7-7-7-7-7-7-7-7-7-7-7-5-7-7-7-5-7-7-7-7-7-7-7-7-7-9-9---------|
E|-----------------------------------------------------------------|
   1 + 2 + 3 + 4 + 1 + 2 + 3 + 4 + 1 + 2 + 3 + 4 + 1 + 2 + 3 + 4 +

G|-----------------------------------------------------------------|
D|-----------------------------------------------------------------|
A|---------------------------------5-7-7-7-5-7-7-7-5-7-7-7-7-7-7-7-|
E|-5-5-5-5-5-5-5-5-4-5-5-5-5-5-7-7---------------------------------|
   1 + 2 + 3 + 4 + 1 + 2 + 3 + 4 + 1 + 2 + 3 + 4 + 1 + 2 + 3 + 4 +

G|-----------------------------------------------------------------|
D|-----------------------------------------------------------------|
A|---------------------------------5-7-7-7-5-7-7-7-----------------|
E|-7-7-7-7-7-7-7-6-5-5-5-5-5-5-5-5-----------------x-7-7-7-7-7-7-7-|
   1 + 2 + 3 + 4 + 1 + 2 + 3 + 4 + 1 + 2 + 3 + 4 + 1 + 2 + 3 + 4 +

  Outro. 2:58
G|-----------------------------------------------------------------|
D|---------------------------------------------------------6-6-9-9-|
A|-5-7-7-7-7-7-7-7-7-7-7-7-5-7-7-7-5-7-7-7-7-7-7-7-7-7-9-9---------|
E|-----------------------------------------------------------------|
   1 + 2 + 3 + 4 + 1 + 2 + 3 + 4 + 1 + 2 + 3 + 4 + 1 + 2 + 3 + 4 +

G|-----------------------------------------------------------------|
D|-----------------------------------------------------------------|
A|---------------------------------5-7-7-7-5-7-7-7-5-7-7-7-7-7-7-7-|
E|-5-5-5-5-5-5-5-5-4-5-5-5-5-5-7-7---------------------------------|
   1 + 2 + 3 + 4 + 1 + 2 + 3 + 4 + 1 + 2 + 3 + 4 + 1 + 2 + 3 + 4 +

G|-----------------------------------------------------------------|
D|---------------------------6-4-6---------------------------------|
A|---------------------------------5-7-7-7-5-7-7-7-7---------------|
E|-7-7-7-7-7-7-7-6-5-5-5-5-5---------------------------------------|
   1 + 2 + 3 + 4 + 1 + 2 + 3 + 4 + 1 + 2 + 3 + 4 + 1 + 2 + 3 + 4 +

  Drums...
G|---------------------------------|
D|---------------------------------|
A|---------------------------------|
E|---------------------------------|
   1 + 2 + 3 + 4 + 1 + 2 + 3 + 4 +

  Slower...
G|-------6-------------------------|
D|---6-9-----9-6-------------------|
A|-7-------------9---7-\-----------|
E|---------------------------------|
   1 + 2 + 3 + 4 + 1 + 2 + 3 + 4 +            
Submit corrections

↑ Back to top | Tablatures and chords for acoustic guitar and electric guitar, ukulele, drums are parodies/interpretations of the original songs. You may use it for private study, scholarship, research or language learning purposes only