» » »

You Me At Six, Playing The Blame Game Tabs (ver.1)

Artists:  A B C D E F G H I J K L M N O P Q R S T U V W X Y Z # 

Playing The Blame Game Tabs (ver.1)

You Me At Six Tabs
Rating:
0/5 (0 votes)
Playing The Blame Game lessons Tabs too difficult? Try these video lessons and learn fast
                This is for all those people who love this song

1st Verse

 E|--7----10------9------7-----------------------------|
 B|--7-------7------7----7-----------------------------|
 G|--7---------7------7--7-------------7---------------|
 D|--------------------------------5/9----9------------|
 A|----------------------------------------------------|
 E|----------------------------------------------------|

 E|--7----10------9------7-----------------------------|
 B|--7-------7------7----7-----------------------------|
 G|--7---------7------7--7---------5/7-----------------|
 D|-----------------------------------------5/9--------|      x2
 A|----------------------------------------------------|
 E|----------------------------------------------------|

 E|--7----10------9------7-----------------------------|
 B|--7-------7------7----7-----------------------------|
 G|--7---------7------7--7------------4444--4444-------|
 D|-----------------------------------4444--4444-------|      x2
 A|-----------------------------------2222--2222-------|
 E|----------------------------------------------------|

Chorus
 E|----------------------------------------------|
 B|----------------------------------------------|
 G|---4-----7------------------------------------|
 D|---4-x8--7-x8--5-----7------------------------|    x2
 A|---2-----5-----5-x8--7-x8---------------------|
 E|---------------3-----5------------------------|

 2nd Verse
 E|--7----10------9------7-----------------------------|
 B|--7-------7------7----7-----------------------------|
 G|--7---------7------7--7-----------------------------|
 D|----------------------------------------------------|      x2
 A|----------------------------------------------------|
 E|----------------------------------------------------|

 E|----------------------------------------------------------------------|
 B|----------------------------------------------------------------------|
 G|-------------777-xxx--------------------------------------------------|
 D|----999-xxx--777-xxx--77777-5555-xxxx--22222222-----------------------|      x2
 A|----999-xxx--555-xxx--77777-5555-xxxx--22222222-----------------------|
 E|----777-xxx-----------55555-3333-xxxx--00000000-----------------------|

Pre Chorus

 E|----------------------------------------------|
 B|----------------------------------------------|
 G|---4----6---77777-----------------------------|
 D|---4----6---77777-----------------------------|    x4
 A|---2----4---55555-----------------------------|
 E|----------------------------------------------|

Chorus
 E|----------------------------------------------|
 B|----------------------------------------------|
 G|---4-----7------------------------------------|
 D|---4-x8--7-x8--5-----7------------------------|    x3
 A|---2-----5-----5-x8--7-x8---------------------|
 E|---------------3-----5------------------------|

 E|----------------------------------------------|
 B|----------------------------------------------|
 G|---4-----7------------------------------------|
 D|---4-x8--7-x8--5-----2------------------------|      x1
 A|---2-----5-----5-x8--2-x8---------------------|
 E|---------------3-----0------------------------|

Bridge
 E|----------------------------------------------|
 B|----------------------------------------------|
 G|---------7------------------------------------|
 D|----9999-7---x4-----7777777777----------------|    x4
 A|----9999-5----------7777777777----------------|
 E|----7777------------5555555555----------------|

Chorus
 E|-------------------------------------------------------|
 B|-------------------------------------------------------|
 G|---4-----7-------------------------------7-4-----------|
 D|---4-x8--7-x8--5-----7----x4-55-77-55-77-7-4-----------|
 A|---2-----5-----5-x8--7-x8----55-77-55-77-5-2-----------|
 E|---------------3-----5-------33-55-33-55---------------|
            
Submit corrections

comments powered by Disqus
↑ Back to top | You Me At Six Tabs for Playing The Blame Game. Lyrics for acoustic guitar and electric guitar. Tablatures and chords are parodies/interpretations of the original songs. You may use it for private study, scholarship, research or language learning purposes only