>
 >
Little Death

Little Death Guitar Tabs

You Me At Six - Little Death chords, tabs, tablatures, lyrics

Guitar lessons | Add/correct | Request | Top 50 tabs Artists:  A B C D E F G H I J K L M N O P Q R S T U V W X Y Z 0-9

Little Death Guitar Tabs – You Me At Six

CD, Sheet music, Poster

Do you like Little Death? Share with your friends now
TabsTabs v2

Drop D tuning

Intro Lead x3                           The fourth time
e-----------------------------------|--------------------------------------|
B---------------4-4-4-6-6-6-6-6-6-4-|-------------4-4-4-6-6-6-6-6-6-6------|
G--6-6-6-5-5-5----------------------|-6-6-6-5-5-5--------------------------|
D-----------------------------------|--------------------------------8(x16)|
A-----------------------------------|--------------------------------------|
D-----------------------------------|--------------------------------------|

x3
e--------------------------------------------------------------------------|
B--------------------16-16-16-18-18-18-18-18-18-16-------------------------|
G--18-18-18-17-17-17-------------------------------------------------------|
D--------------------------------------------------------------------------|
A--------------------------------------------------------------------------|
D--------------------------------------------------------------------------|

End part
e--------------------------------------------------------------------------|
B--------------------16-16-16-18-18-18-18-18-18-16-------------------------|
G--18-18-18-17-17-17-------------------------------15----------------------|
D--------------------------------------------------x--(x16)----------------|
A--------------------------------------------------13----------------------|
D--------------------------------------------------------------------------|

Intro Rhythm x2
e--x-x-x-x-----------------------------------------------------------------|
B--x-x-x-x-----------------------------------------------------------------|
G--x-x-x-x-3------6----(8)----(6)------------------------------------------|
D--x-x-x-x-3(x28)-6(x4)-6------4-------------------------------------------|
A--x-x-x-x-1------4-----6(x16)-4(x16)--------------------------------------|
D--x-x-x-x--------------6------4-------------------------------------------|


Verse 1 Lead
e----4-------------4-----------4-------------4-----------------------------|
B--------------------------------------------------------------------------|
G--6---5---------6---5-------6---5---------6---5---------------------------|
D----------6/8----------5-----------6/8-----------5------------------------|
A--------------------------------------------------------------------------|
D--------------------------------------------------------------------------|


Chorus 1 Lead x2
e--x-x-x-x-----------------------------------------------------------------|
B--x-x-x-x-----------------------------------------------------------------|
G--x-x-x-x--15------6-----8------1-----------------------------------------|
D--x-x-x-x--x(x32)-x(x8)-x(x8)---x(x12)------------------------------------|
A--x-x-x-x--13------4-----6------3-----------------------------------------|
D--x-x-x-x-----------------------------------------------------------------|

Chorus 1 Rhythm x2
e--x-x-x-x-----------------------------------------------------------------|
B--x-x-x-x-----------------------------------------------------------------|
G--x-x-x-x--3------6----(8)----(6)-----------------------------------------|
D--x-x-x-x--3(x28)-6(x4)-6------4------------------------------------------|
A--x-x-x-x--1------4-----6(x16)-4(x16)-------------------------------------|
D--x-x-x-x---------------6------4------------------------------------------|


Verse 2 Lead x2
e----4-------------4-----------4-------------------------------------------|
B--------------------------------------------------------------------------|
G--6---5---------6---5-------6---5---------6-------------------------------|
D----------6/8----------5-----------6/8-----------5------------------------|
A--------------------------------------------------------------------------|
D--------------------------------------------------------------------------|


Chorus 2 Lead x2
e--x-x-x-x-----------------------------------------------------------------|
B--x-x-x-x-----------------------------------------------------------------|
G--x-x-x-x--15------6-----8------1-----------------------------------------|
D--x-x-x-x--x(x32)--x(x8)-x(x8)--x(x12)------------------------------------|
A--x-x-x-x--13------4-----6------3-----------------------------------------|
D--x-x-x-x-----------------------------------------------------------------|

Chorus 2 Rhythm x2
e--x-x-x-x-----------------------------------------------------------------|
B--x-x-x-x-----------------------------------------------------------------|
G--x-x-x-x--3------6----(8)----(6)-----------------------------------------|
D--x-x-x-x--3(x28)-6(x4)-6------4------------------------------------------|
A--x-x-x-x--1------4-----6(x16)-4(x16)-------------------------------------|
D--x-x-x-x---------------6------4------------------------------------------|


Bridge Start Rhythm (palm muted)
e--------------------------------------------------------------------------|
B--6---6---6---6---6----6---6---6---6---6----------------------------------|
G---6---6---6---6---6-6--6---6---6---6---6-6-------------------------------|
D----8---8---8---8---8----6---6---6---6---6--------------------------------|
A--------------------------------------------------------------------------|
D--------------------------------------------------------------------------|
                                  release pm
e-------------------------------------0------------------------------------|
B--4---4---4---4---4----4---4---4-----4------------------------------------|
G---6---6---6---6---6-6---------------0------------------------------------|
D----6---6---6---6---6---5---5---5----5------------------------------------|
A-------------------------6---6---6---6------------------------------------|
D--------------------------------------------------------------------------|

Bridge Start Lead (Listen for timing)
e-------------------------------------x-x-x-x------------------------------|
B-------------------------------------x-x-x-x------------------------------|
G-------3-3-------------------3~------x-x-x-x------------------------------|
D-------3-3-----6----4--4-----3~------x-x-x-x------------------------------|
A-------1-1-----6----4--4-----1~------x-x-x-x------------------------------|
D---------------6----4--4-------------x-x-x-x------------------------------|


Bridge Rhythm
e--------------------------------------------------------------------------|
B--------------------------------------------------------------------------|
G--3------6----(8)----(6)--------------------------------------------------|
D--3(x28)-6(x4)-6------4---------------------------------------------------|
A--1------4-----6(x16)-4(x16)----------------------------------------------|
D---------------6------4---------------------------------------------------|

Bridge Lead x3                          The fourth time
e-----------------------------------|--------------------------------------|
B---------------4-4-4-6-6-6-6-6-6-4-|-------------4-4-4-6-6-6-6-6-6-6------|
G--6-6-6-5-5-5----------------------|-6-6-6-5-5-5--------------------------|
D-----------------------------------|--------------------------------8(x16)|
A-----------------------------------|--------------------------------------|
D-----------------------------------|--------------------------------------|


Chorus 3 Lead x3
e--------------------------------------------------------------------------|
B--------------------16-16-16-18-18-18-18-18-18-16-------------------------|
G--18-18-18-17-17-17-------------------------------------------------------|
D--------------------------------------------------------------------------|
A--------------------------------------------------------------------------|
D--------------------------------------------------------------------------|

End part
e--------------------------------------------------------------------------|
B--------------------16-16-16-18-18-18-18-18-18-16-------------------------|
G--18-18-18-17-17-17-------------------------------15----------------------|
D--------------------------------------------------x--(x16)----------------|
A--------------------------------------------------13----------------------|
D--------------------------------------------------------------------------|

Chorus 3 Rhythm x2
e--x-x-x-x-----------------------------------------------------------------|
B--x-x-x-x-----------------------------------------------------------------|
G--x-x-x-x--3------6----(8)----(6)-----------------------------------------|
D--x-x-x-x--3(x28)-6(x4)-6------4------------------------------------------|
A--x-x-x-x--1------4-----6(x16)-4(x16)-------------------------------------|
D--x-x-x-x---------------6------4------------------------------------------|


Outro Lead
e--------------------------------------------------------------------------|
B--------------------------------------------------------------------------|
G--15------15-------15-----------------------------------------------------|
D--x(x13)--x(x14)---x(x17)-------------------------------------------------|
A--13------13-------13-----------------------------------------------------|
D--------------------------------------------------------------------------|

Outro Rhythm
e--------------------------------------------------------------------------|
B--------------------------------------------------------------------------|
G--3-------3------3--------------------------------------------------------|
D--3(x13)--3(x14)-3(x17)---------------------------------------------------|
A--1-------1------1--------------------------------------------------------|
D--------------------------------------------------------------------------|





Comments


Popular You Me At Six tabs & chords
If You Run Bass Tabs
If You Run 2 Bass Tabs
Finders Keepers 1 Chords
Jealous Minds Think Alike 1 Chords
No One Does It Better Chords
Always Attract Intro Tabs
Lived A Lie 1 Tabs
Loveboy Acoustic Intro Tabs
Tigers And Sharks Intro 1 Tabs
The Dilemma Ukulele


Song lyrics



↑ Back to top | Tablatures and chords are parodies/interpretations of the original songs. You may use it for private study, scholarship, research or language learning purposes only
© 2014 AZChords.com Contact us | Privacy policy | DMCA | Add/correct tabs | Request tabs | Top 50 tabs