» » »

You Me At Six, Jaws On The Floor Tabs (ver.1)

Artists:  A B C D E F G H I J K L M N O P Q R S T U V W X Y Z # 

Jaws On The Floor Tabs (ver.1)

You Me At Six Tabs
 Rating:
4/5 (4 votes)
Jaws On The Floor lessons Tabs too difficult? Try these video lessons and learn fast
1
                You Me At Six
Jaws on the Floor

Guitar 1 - Drop D
Guitar 2 - Drop D

If you have any questions just leave a comment!

Enjoy and please rate!
Thanks :D x


GUITAR 1


###Intro/Verse###
[00:00 - 00:38]

(an*log delay, lots of repeats, quarter notes)
|------------------|-------------------|
|------------------|-------------------|
|------------------|-------------------|
|------------------|------------------5| x2
|2-----5-----7-----|2-----5-----7-----3|
|2-----5-----7-----|2-----5-----7------|

|------------------|------------------------|
|------------------|------------------------|
|------------------|------------------------|
|------------------|------------------5-5---|
|2-----5-----7-----|2-----5-----7-----3-3---|
|2-----5-----7-----|2-----5-----7-----------|

###Chorus###
[00:38 - 00:50]

|---------------|---------------|-------------------------------|
|---------------|---------------|-------------------------------|
|7-7-7-7-7-7-7-7|7-7-7-7-7-7-7-7|7-7-7-7-7-7-7-7-7-7-7-7-7-7-7-7|
|5-5-5-5-5-5-5-5|5-5-5-5-5-5-5-5|7-7-7-7-7-7-7-7-7-7-7-7-7-7-7-7|
|3-3-3-3-3-3-3-3|5-5-5-5-5-5-5-5|5-5-5-5-5-5-5-5-5-5-5-5-5-5-5-5|
|---------------|5-5-5-5-5-5-5-5|-------------------------------|

###Verse 2###
[00:50 - 01:39]

(Palm mute the chords on the 2nd time, straight 8th notes)
|------------------|------------------------|
|------------------|------------------------|
|------------------|------------------------|
|------------------|------------------5-5---| x2
|2-----5-----7-----|2-----5-----7-----3-3---|
|2-----5-----7-----|2-----5-----7-----------|

###Bridge###
[01:39 - 02:10]

|-------------------------------------------------------------|
|-------------------------------------------------------------|
|-------------------------------------------------------------|
|5-5-5---5-5-5---5-5-5---5-5-5---9-9-9---9-9-9---5-5-5---5-5-5| 
|3-3-3---3-3-3---2-2-2---2-2-2---7-7-7---7-7-7---5-5-5---5-5-5|
|------------------------------------------------5-5-5---5-5-5|

|---------------------------------------------------------------|
|---------------------------------------------------------------|
|---------------------------------------------------------------|
|5-5-5---5-5-5---5-5-5---5-5-5---9-9-9---9-9-9---5-5-5-5-5-5-5-5| 
|3-3-3---3-3-3---2-2-2---2-2-2---7-7-7---7-7-7---5-5-5-5-5-5-5-5|
|------------------------------------------------5-5-5-5-5-5-5-5| 
                     x2
|----------------------|-------|-------|-------------------------------|
|----------------------|-------|-------|-------------------------------|
|----------------------|-------|-------|-------------------------------|
|5-----5 ----9-----5---|5-5-5-5|5-5-5-5|7---7-7-7-7-7-7-7-7-7-7-7-7-7-7| 
|3 x8--2 x8--7 x8--5 x8|3-3-3-3|3-3-3-3|5---5-5-5-5-5-5-5-5-5-5-5-5-5-5|
|------------------5---|-------|-------|-------------------------------|
                                            . . . . . . . . . . . . . .

###Chorus###
[02:10 - 02:35]

###Outro###
[02:35 - END]

|------------------|
|------------------|
|------------------|
|5-----5-----7-----|
|3-----5-----5-----|
|------5-----------|

________

GUITAR 2


###Intro/Verse###
[00:13 - 00:38]

|----------------------------------------|
|-----------------------12-12-12-10-10-10|
|-----------------------12-12-12-11-11-11|
|7/9--9--------7/9--9--------------------|
|5/7--7--------5/7--7--------------------|
|----------------------------------------|

|-------------------------------------------|
|-----------------------10-10-10-8-8-8------|
|-----------------------11-11-11-9-9-9------|  x2
|7/9--9--------7/9--9-----------------------|
|5/7--7--------5/7--7-----------------------|
|-------------------------------------------|
                                 ^ ^ ^
                                 First time only

###Chorus###
[00:38 - 00:50]

|----------------------10------10------10---|
|12------12------12-------------------------|
|-----12------12----12------12------12----12|
|-------------------------------------------|
|-------------------------------------------|
|-------------------------------------------|

|-------------------------------------------|
|12------12------12----10------10------10---|
|-----12------12----12------12------12----12|   x2
|-------------------------------------------|
|-------------------------------------------|
|-------------------------------------------|

###Verse 2###
[00:50 - 01:15]

(Play the first verse part once, then..)
                      x3
|-----------------------|-----------------------|
|-----------------------|-----------------------|
|------------12----12---|14-12----14-12----14-12|
|12h14-14-14----14----14|------14-------14------|
|-----------------------|-----------------------|
|-----------------------|-----------------------|
       .  .     .     .
                      x3
|-----------------------|-----------------------|
|-----------------------|12-12-12-12------------|
|------------12----12---|12-12-12-12------------|
|12h14-14-14----14----14|-----------------------|
|-----------------------|-----------------------|
|-----------------------|-----------------------|
       .  .     .     .

###Chorus###
[01:15 - 01:39]

###Bridge###
[01:39 - 02:10]
         x16 
|-----------|
|15p12------|
|------14p12|
|-----------|
|-----------|
|-----------|
 
|---------------|---------------|---------------|---------------|
|8-8-8-7-7-7-8-8|8-8-8-7-7-7-5-5|8-8-8-7-7-7-8-8|7-7-7-7-7-7-7-7|
|7-7-7-7-7-7-7-7|7-7-7-7-7-7-7-7|7-7-7-7-7-7-7-7|7-7-7-7-7-7-7-7|
|---------------|---------------|---------------|---------------| x2
|---------------|---------------|---------------|---------------|
|---------------|---------------|---------------|---------------|
                                                                x2
|---------------------|---------------------|10------10------10---|
|10------10------10---|12------12------12---|---------------------|
|-----12------12----12|-----12------12----12|-----12------12----12|
|---------------------|---------------------|---------------------|
|---------------------|---------------------|---------------------|
|---------------------|---------------------|---------------------|

###Chorus###
[02:10 - 02:35]

(Same but after one chorus go into this..)

|--------------------|----------------------|
|--------------------|----------------------|
|12-12-12-11-11-9-9-9|9/11-11-11-11-11-11-11|
|x--x--x--x--x--x-x-x|x-x--x--x--x--x--x--x-|
|10-10-10-9--9--7-7-7|7/9--9--9--9--9--9--9-|
|--------------------|----------------------|

###Outro###
[02:35 - END]

|-------------------|
|-------------------|
|9--------7--------7|
|x--------x--------x|
|7--------5--------5|
|-------------------|
            
Submit corrections

comments powered by Disqus
↑ Back to top | You Me At Six Tabs for Jaws On The Floor. Lyrics for acoustic guitar and electric guitar. 1 Tablatures and chords are parodies/interpretations of the original songs. You may use it for private study, scholarship, research or language learning purposes only