» » »

Crash Tabs (ver.2)

Artists:  A B C D E F G H I J K L M N O P Q R S T U V W X Y Z # 

Crash Tabs (ver.2)

You Me At Six
Rating:
0/5 (0 votes)

Hard to play? Try these video lessons and learn fast.
                Hey, so I went to look for a tab for this song and I came across
completely correct. It was a
half step off. So this is the modified version of that tab so you can play along with 
the track.

Intro/Verse
e|-------4---|
B|-----2-----|
G|-----------|
D|-----------|
A|-4---------|
E|-----------|
Pre-Chorus 1
e|-----------------------------------------2-------2---|
B|-----------------------------------------2-------2---|
G|-----------------------------------------3-------3---|  x2
D|-----------------------------------------------------|
A|-1-1-1-1-1-1-1-1--4-4-4-4-4-4-4-4--------------------|
E|-----------------------------------2-2-2---2-2-2-----|
Verse 2
e|-------4---|
B|-----2-----|
G|-----------|
D|-----------|
A|-4---------|
E|-----------|
Pre-Chorus 2
e|-----------------------------------------2-------2---|
B|-----------------------------------------2-------2---|
G|-3-3-3-3-3-3-3-3--6-6-6-6-6-6-6-6--------3-------3---|  x2
D|-3-3-3-3-3-3-3-3--6-6-6-6-6-6-6-6--4-4-4-4-4-4-4-4---|
A|-1-1-1-1-1-1-1-1--4-4-4-4-4-4-4-4--4-4-4-4-4-4-4-4---|
E|-----------------------------------2-2-2-2-2-2-2-2---|
Chorus
e|----------------------------------------------------------------------|
B|----------------------------------------------------------------------|
G|-6-6-6-6-6-6-6-6-3-3-3-3-3-3-3-3-----------------3-3-3-3-3-3-3-3------|  x2
D|-6-6-6-6-6-6-6-6-3-3-3-3-3-3-3-3-6-6-6-6-6-6-6-6-4-4-4-4-4-4-4-4------|
A|-4-4-4-4-4-4-4-4-1-1-1-1-1-1-1-1-6-6-6-6-6-6-6-6-4-4-4-4-4-4-4-4------|
E|---------------------------------4-4-4-4-4-4-4-4-2-2-2-2-2-2-2-2------|
Verse 3
e|-------4---|
B|-----2-----|
G|-----------|
D|-----------|
A|-4---------|
E|-----------|
Chorus
e|----------------------------------------------------------------------|
B|----------------------------------------------------------------------|
G|-6-6-6-6-6-6-6-6-3-3-3-3-3-3-3-3-----------------3-3-3-3-3-3-3-3------|  x4
D|-6-6-6-6-6-6-6-6-3-3-3-3-3-3-3-3-6-6-6-6-6-6-6-6-4-4-4-4-4-4-4-4------|
A|-4-4-4-4-4-4-4-4-1-1-1-1-1-1-1-1-6-6-6-6-6-6-6-6-4-4-4-4-4-4-4-4------|
E|---------------------------------4-4-4-4-4-4-4-4-2-2-2-2-2-2-2-2------|
Outro
e|---|--------4----------|
B|---|------2------------|
G|-6-|-------------------| x8
D|-6-|-------------------|
A|-4-|----4--------------|
E|---|-------------------|
            
Hard to play? Try these video lessons and learn fast. | Correct




comments powered by Disqus
↑ Back to top | Tablatures and chords are parodies/interpretations of the original songs. You may use it for private study, scholarship, research or language learning purposes only