» » »

You Me At Six, Bite My Tongue Bass tabs (ver.2)

Artists:  A B C D E F G H I J K L M N O P Q R S T U V W X Y Z # 

Bite My Tongue Bass tabs (ver.2)

You Me At Six Tabs
Rating:
5/5 (2 votes)
Bite My Tongue lessons Tabs too difficult? Try these video lessons and learn fast
                You Me At Six
Bite My Tongue

Drop D (DADG)
I know this isn't 100% but im pretty sure most of it is right and it sounds good, 
but constructive critcism is always welcome :)

~ hold note
/ slide up

Guitar Only (0:00-0:12)

Bass Enters 0:12
'You Always Do...'

G|--------------------------------------|
D|--------------------------------------|             ----|    
A|--------------------------------------|                 |  
D|-225-22222222222222225555555577779999-|                 | 
                                                          |  Repeat x2
G|--------------------------------------------------|     |
D|--------------------------------------------------|     | 
A|--------------------------------------------------| ----| 
D|-101010101010101010101010101010105555555555555555-|  

End On:

G|--------------
D|--------------
A|--------------
D|-225~--xx-xx--

Chorus (0:42)

'You Keep Me On...'

G|-------------------------------------------------------------------|
D|-------------------------------------------------------------------|
A|---------------------------------333333333333333355555555555555-5--| 
D|-22222222222222225555555555555555------------------------------5---|

G|------------------------------------------------------------------|
D|------------------------------------------------------------------|
A|---------------------------------3333333333333333555555555555-5-5-| 
D|-22222222222222225555555555555555----------------------------5-5--|

2nd Verse (1:10)

'I'm Married To...'

G|----------------------------------------------------------|
D|----------------------------------------------------------|
A|-------------------------333333333333333355555555555555-5-|
D|-22-22-22----22-22-22----------------------------------5--|

'I Can't Recall...'

G|-----------------------------------------------|
D|----------7-5--------------------7-5-----------|
A|--------------7-5--3/5---------------7-5---3/5-|
D|-22-22-22--------5------22-22-22---------5-----|

'Last I Checked...'

G|-----------------------------------------------------------|
D|-----------------------------------------------------------|
A|-333333333333333355555555555555-5--------------------------|
D|-------------------------------5-2~--------2~--------xx-xx-|

2nd Chorus (1:43)

'You Keep Me On...'

G|-------------------------------------------------------------------|
D|-------------------------------------------------------------------|
A|---------------------------------333333333333333355555555555555-5--| 
D|-22222222222222225555555555555555------------------------------5---|

G|------------------------------------------------------------------|
D|------------------------------------------------------------------|
A|---------------------------------3333333333333333555555555555-5-5-| 
D|-22222222222222225555555555555555----------------------------5-5--|

Bridge (2:10)

G|-------------------------------------------------|
D|-------------------------------------------------|
A|-------------------------------------------------| x2
G|-2-2~------------2-2~------------2-2~------------|

'You've Become...'

G|-----------------------------------------------------------------|
D|-----------------------------------------------------------------|
A|-----------------------------------------------------------------| x2
D|-2-2-22-2-22-222-2-2-22-2-22-222-2-2-22-2-22-222-2-2-22-2-22-222-|

Final Chorus (2:56)

'You Keep Me On...'

G|-------------------------------------------------------------------|
D|-------------------------------------------------------------------|
A|---------------------------------333333333333333355555555555555-5--| 
D|-22222222222222225555555555555555------------------------------5---|

G|------------------------------------------------------------------|
D|------------------------------------------------------------------|
A|---------------------------------3333333333333333555555555555-5-5-| 
D|-22222222222222225555555555555555----------------------------5-5--|

End On:

G|-------|
D|-------|
A|-------|
D|-22-2~-|
            

comments powered by Disqus
↑ Back to top | You Me At Six Bass for Bite My Tongue. Lyrics for acoustic guitar and electric guitar. Tablatures and chords are parodies/interpretations of the original songs. You may use it for private study, scholarship, research or language learning purposes only