» » »

Yellowcard, Way Away Tabs (ver.1)

Artists:  A B C D E F G H I J K L M N O P Q R S T U V W X Y Z # 

Way Away Tabs (ver.1)

Yellowcard Tabs
 Rating:
4/5 (4 votes)
Way Away lessons Tabs too difficult? Try these video lessons and learn fast
1
                Tuning:(DADGBE)

GUITAR 1
---------------
Intro:
e|-----3-----5----3----5----3----5--3-------3----5----3--6-5-3-1-------------| X2
B|--------3----3-----3---3----3---------------3-----3------------------------|
G|---------------------------------------3-----------------------------------|
D|--0------------------------------------------------------------------------|
A|---------------------------------------------------------------------------|
D|---------------------------------------------------------------------------|


Intro Cont'd:
e|---------------------------------------------------------------------------| X2
B|---------------------------------------------------------------------------|
G|---------------------------------------------------------------------------|
D|-0-0-0-0-0-0-0-0-0-0-0-0-0-5-5-5-8-8-8-8-8-8-8-8-8-8-8-8-8-3-3-3-----------|
A|-0-0-0-0-0-0-0-0-0-0-0-0-0-5-5-5-8-8-8-8-8-8-8-8-8-8-8-8-8-3-3-3-----------|
D|-0-0-0-0-0-0-0-0-0-0-0-0-0-5-5-5-8-8-8-8-8-8-8-8-8-8-8-8-8-3-3-3-----------|


Verse: "I think I'm breaking out..."

No Guitar 1

Verse Cont'd: "It's all the same"
e|---------------------------------------------------------------------------|
B|---------------------------------------------------------------------------|
G|---------------------------------------------------------------------------|
D|--3-3-3-3-3-2-2-2-2-2------------------------------------------------------|
A|--3-3-3-3-3-3-3-3-3-3------------------------------------------------------|
D|--3-3-3-3-3-2-2-2-2-2------------------------------------------------------|


Repeat Verse


Chorus: "Way away away from here I'll be"
e|---------------------------------------------------------------------------|
B|---------------------------------------------------------------------------|
G|-------------------------5-5-5-5-5-5-5-5-5-5-5-5---------------------------|
D|-0-0-0-0-0-0-0-0-0-0-0-0-3-3-3-3-3-3-3-3-3-3-3-3---------------------------|
A|-0-0-0-0-0-0-0-0-0-0-0-0-3-3-3-3-3-3-3-3-3-3-3-3---------------------------|
D|-0-0-0-0-0-0-0-0-0-0-0-0-3-3-3-3-3-3-3-3-3-3-3-3---------------------------|


Chorus Cont'd: "Way away away so you can see"
e|---------------------------------------------------------------------------|
B|---------------------------------------------------------------------------|
G|---------------------------------------------------------------------------|
D|-8-8-8-8-8-8-8-8-8-8-8-8-7-7-7-7-7-7-7-7-7-7-7-7---------------------------|
A|-8-8-8-8-8-8-8-8-8-8-8-8-8-8-8-8-8-8-8-8-8-8-8-8---------------------------|
D|-8-8-8-8-8-8-8-8-8-8-8-8-7-7-7-7-7-7-7-7-7-7-7-7---------------------------|


Chours Cont'd: "How it feels to be alone and not believed"
e|---------------------------------------------------------------------------|
B|---------------------------------------------------------------------------|
G|---------------------------------------------------------------------------|
D|-5-5-5-5-5-5-5-5-5-5-5-5-0-0-0-0-0-0-2-2-2-2-2-2---------------------------|
A|-5-5-5-5-5-5-5-5-5-5-5-5-0-0-0-0-0-0-3-3-3-3-3-3---------------------------|
D|-5-5-5-5-5-5-5-5-5-5-5-5-0-0-0-0-0-0-2-2-2-2-2-2---------------------------|


Chorus Cont'd: "Feels to be alone and not believe, anything"
e|---------------------------------------------------------------------------|
B|---------------------------------------------------------------------------|
G|---------------------------------------------------------------------------|
D|-5-5-5-5-5-5-5-5-5-5-5-5-8-8-8-8-8-8-8-8-8-8-8-8---------------------------|
A|-5-5-5-5-5-5-5-5-5-5-5-5-8-8-8-8-8-8-8-8-8-8-8-8---------------------------|
D|-5-5-5-5-5-5-5-5-5-5-5-5-8-8-8-8-8-8-8-8-8-8-8-8---------------------------|


Repeat second part of intro


Verse: "You can't stop me now..."
e|---------------------------------------------------------------------------|
B|---------------------------------------------------------------------------|
G|---------------------------------------------------------------------------|
D|---------------------------------------------------------------------------|
A|-5-5-5-5-5-5-5-5-5-5-5-5-5-5-5-5-3-3-3-3-3-3-3-3-3-3-3-3-3-3-3-------------|
D|---------------------------------------------------------------------------|
   . . . . . . . . . . . . . . . . . . . . . . . . . . . . . . . 
e|---------------------------------------------------------------------------|
B|---------------------------------------------------------------------------|
G|---------------------------------------------------------------------------|
D|---------------------------------------------------------------------------|
A|-1-1-1-1-1-1-1-1-1-1-1-1-1-1-1-1-------------------------------------------|
D|---------------------------------------------------------------------------|
   . . . . . . . . . . . . . . . .

Verse Cont'd: "I'm on my way"
e|---------------------------------------------------------------------------|
B|---------------------------------------------------------------------------|
G|---------------------------------------------------------------------------|
D|-3-3-3-3-3-2-2-2-2-2-------------------------------------------------------|
A|-3-3-3-3-3-3-3-3-3-3-------------------------------------------------------|
D|-3-3-3-3-3-2-2-2-2-2-------------------------------------------------------|


Repeat Verse


Pre-Chorus: "Yea.."
e|---------------------------------------------------------------------------|
B|---------------------------------------------------------------------------|
G|---------------------------------------------------------------------------|
D|-8-8-8-8-8-8-8-8-8-8-8-8-8-8-8-8-------------------------------------------|
A|-8-8-8-8-8-8-8-8-8-8-8-8-8-8-8-8-------------------------------------------|
D|-8-8-8-8-8-8-8-8-8-8-8-8-8-8-8-8-------------------------------------------|

Repeat Chorus

 
Bridge: No Guitar 1


Breakdown: "Letting out the noise inside of me..."
e|---------------------------------------------------------------------------| X4
B|---------------------------------------------------------------------------|
G|---------------------------------------------------------------------------|
D|-0-0-0-0-0-0-0-0-0-0-0-0-0-0-0-0-8-8-8-8-8-8-8-8-8-8-8-8-8-8-8-8-----------|
A|-0-0-0-0-0-0-0-0-0-0-0-0-0-0-0-0-8-8-8-8-8-8-8-8-8-8-8-8-8-8-8-8-----------|
D|-0-0-0-0-0-0-0-0-0-0-0-0-0-0-0-0-8-8-8-8-8-8-8-8-8-8-8-8-8-8-8-8-----------|


Breakdown Cont'd:
e|---------------------------------------------------------------------------|
B|---------------------------------------------------------------------------|
G|---------------------------------------------------------------------------|
D|-7-7-7-7-7-7-7-7-7-7-7-7-7-7-7-7-0-0---------------------------------------|
A|-7-7-7-7-7-7-7-7-7-7-7-7-7-7-7-7-0-0---------------------------------------|
D|-7-7-7-7-7-7-7-7-7-7-7-7-7-7-7-7-0-0---------------------------------------|


Repeat Chorus: (Start on the second chord)




                     

GUITAR 2 
-------------
Intro
e|---------------------------------------------------------------------------| X2
B|---------------------------------------------------------------------------|
G|---0---2---0---2---0---2---0----0---2---0---3---2---0----------------------|
D|-0---0---0---0---0---0---0------------------------------3------------------|
A|------------------------------1---1---1---1---1---1---1--------------------|
D|---------------------------------------------------------------------------|


Intro Cont'd
e|---------------------------------------------------------------------------| X2
B|---------------------------------------------------------------------------|
G|-12-12-14-12-14-12-14-12-12-12-12-12-14-12-15-14-12-10--10--10-------------|
D|-x--x--x--x--x--x--x--x--x--x--x--x--x--x--x--x--x--x---x---x--------------|
A|-10-10-12-10-12-10-12-10-10-10-10-10-12-10-13-12-10-8---8---8--------------|
D|---------------------------------------------------------------------------|


Verse: "I think I'm breaking out.." (No guitar 2) 


Verse Cont'd
e|---------------------------------------------------------------------------|
B|---------------------------------------------------------------------------|
G|---------------------------------------------------------------------------|
D|-3-3-3-3-3-3-2-2-2-2-2-2---------------------------------------------------|
A|-3-3-3-3-3-3-3-3-3-3-3-3---------------------------------------------------|
D|-3-3-3-3-3-3-2-2-2-2-2-2---------------------------------------------------|


Chorus: (Same as Guitar 1)


Repeat second Part of Intro


Repeat Verse


Pre-Chorus: (Same as Guitar 1)


Chorus: (Same as Guitar 1)


Bridge: ( It's hard to make out what he's playin', but I think it goes like this)
e|-----5----------5-----------5--8-----5-5--8--5-5---------------------------| X5
B|-------5-6--------5-6-------------6----------------------------------------|
G|--7---------7-7--------7-7-------------------------------------------------|
D|---------------------------------------------------------------------------|
A|---------------------------------------------------------------------------|
D|---------------------------------------------------------------------------|


Breakdown:
e|---------------------------------------------------------------------------|
B|---------------------------------------------------------------------------|
G|-7-7-7-7-9-9-9-9-10-10-10-10-12-12-12-12-12--------------------------------|
D|-x-x-x-x-x-x-x-x-x--x--x--x--x--x--x--x--x---------------------------------|
A|-5-5-5-5-7-7-7-7-8--8--8--8--10-10-10-10-10--------------------------------|
D|---------------------------------------------------------------------------|

e|---------------------------------------------------------------------------| X4
B|---------------------------------------------------------------------------|
G|---------------------------------------------------------------------------|
D|-8-8-8-8-8-8-8-8-8-8-8-8-8-8-8-8-------------------------------------------|
A|-8-8-8-8-8-8-8-8-8-8-8-8-8-8-8-8-------------------------------------------|
D|-8-8-8-8-8-8-8-8-8-8-8-8-8-8-8-8-------------------------------------------|


Breakdown Cont'd:
e|---------------------------------------------------------------------------|
B|---------------------------------------------------------------------------|
G|---------------------------------------------------------------------------|
D|-8-8-8-8-8-8-8-8-8 8-8-8-8-8-8-8-0-0---------------------------------------|
A|-8-8-8-8-8-8-8-8-8-8-8-8-8-8-8-8-0-0---------------------------------------|
D|-8-8-8-8-8-8-8-8-8-8-8-8-8-8-8-8-0-0---------------------------------------|


Repeat Chorus: (Start on second chord)



I just updated this. (11/29/03)
            
Submit corrections

comments powered by Disqus
↑ Back to top | Yellowcard Tabs for Way Away. Lyrics for acoustic guitar and electric guitar. 1 Tablatures and chords are parodies/interpretations of the original songs. You may use it for private study, scholarship, research or language learning purposes only