» » »

Yellowcard, Way Away Tabs (ver.2)

Artists:  A B C D E F G H I J K L M N O P Q R S T U V W X Y Z # 

Way Away Tabs (ver.2)

Yellowcard Tabs
Rating:
0/5 (0 votes)
Way Away lessons Tabs too difficult? Try these video lessons and learn fast
                Yellowcard-Way Away

Drop D tuning
Intro is a little funny ... i mean give me a break it came out today and i've
got the rest of it done. intro stuff i dont know is out of Dm and A#...

(when there is an x4 next to a chord it means just that chord as you come to it)

clean intro
close to same as harmonies when it all kicks in
music kicks in rockin intro x2
guitar one
e|---------------------------------------------------------------------------|
B|---------------------------------------------------------------------------|
G|--------------------------------------3-------------------------------------|
D|-0------------------------------------3--------------------------------------|
A|-0------------------------------------1--------------------------------------|
D|-0--------------------------------------------------------------------------|
guitar two (listen for timing, its weird)
e|---------------------------------------------------------------------------|
B|---------------------------------------------------------------------------|
G|--12------14---12---14---12--14--12---------12------14---12---15--14--12--10---------------------------|
D|--x--x2---x----x----x----x---x---x----------x--x4---x----x----x---x---x---x--x4----------------|
A|--10------12----10---12---10--12--10---------10------12----10---13--12--10--8-------------------------|
D|---------------------------------------------------------------------------|
verse play twice
palm mute                              not palm muted
e|---------------------------------------------------------------------------|
B|---------------------------------------------------------------------------|
G|---7-----------5--------------3-----------------------------------------------|
D|---7-x16-------5-x16----------3x16---------3-------3-------------------------------------|
A|---5-----------3--------------1-x8----3--x8---3--- ---------------------------------|
D|-----------------------------------3-------2---------------------------------|
chorus x2
e|---------------------------------------------------------------------------|
B|---------------------------------------------------------------------------|
G|---------------------------------------------------------------------------|
D|-0----------3---------8------8--------5------0--------5--------8-------------------|
A|-0-x16------3-x16-----8-x16--8--x16---5-x16--0--x16---5--x16---8--x16--------------------------------------|
D|-0----------3---------8------7--------5------0--------5--------8-------------------|
Way away...
riff:this is supposed to be vocal but is fun/rockin if you do too
e|---------------------------------------------------------------------------|
B|---------------------------------------------------------------------------|
G|-14--12--10----------------------------------------------------------------------|
D|---------------------------------------------------------------------------|
A|---------------------------------------------------------------------------|
D|---------------------------------------------------------------------------|
  AN---E---Thing

pre chorus (before second chorus only)
e|---------------------------------------------------------------------------|
B|---------------------------------------------------------------------------|
G|---------------------------------------------------------------------------|
D|---8------------------------------------------------------------------------|
A|---8-x16-----------------------------------------------------------------------|
D|---8------------------------------------------------------------------------|
breakdown
clean something like this listen for actualy timing but these are the right
shapes
e|-----------0-----------------0------------------8-------------------8----------|
B|------6------6---6-------6-----6---6--------6------6-----6------6-----6---6------------|
G|--7-7---7------7-----7-7---7-----7------5-5---5-------5-----5-5---5-----5------------------|
D|---------------------------------------------------------------------------|
A|---------------------------------------------------------------------------|
D|---------------------------------------------------------------------------
breakdown heavy part 
guitar one 
e|---------------------------------------------------------------------------|
B|---------------------------------------------------------------------------|
G|-----------------------------------------3----------------------------------|
D|--0--------------------------------------3-x16----------------------------------|
A|--0--x16---------------------------------1--------------------------------------|
D|--0-------------------------------------------------------------------------|
guitar two

e|---------------------------------------------------------------------------|
B|---------------------------------------------------------------------------|
G|--7--------9------10------12-----------------------------------------------------|
D|--x--x4----x-x4---x--x4---x---x4-------------------------------------------------------|
A|--5--------7------8-------10----------------------------------------------------|
E|---------------------------------------------------------------------------|
breakdown ending 
first chord a bunch of times and then dun dun on the last chord 
e|---------------------------------------------------------------------------|
B|---------------------------------------------------------------------------|
G|-3--------------------------------------------------------------------------|
D|-3-----------------------------0---------------------------------------------|
A|-1-----------------------------0-x2--------------------------------------------|
E|-------------------------------0--------------------------------------------|


sequence 
clean intro (dont have it)
intro 
verse
chorus
verse
prechorus
chorus
clean breakdown
mean breakdown
end breakdown
chorus

sorry have to go deliver pizza soon so this was kind of rushed if some of the
tab seems shaky but if you listen to the song a few times you'll get it with
this tab.

if you like yellowcard check out my band,dont tell dallas,at mp3.com
            

comments powered by Disqus
↑ Back to top | Yellowcard Tabs for Way Away. Lyrics for acoustic guitar and electric guitar. Tablatures and chords are parodies/interpretations of the original songs. You may use it for private study, scholarship, research or language learning purposes only