>
 >
Underdog

Underdog Guitar Tabs

Yellowcard - Underdog chords, tabs, tablatures, lyrics

Guitar lessons | Add/correct | Request | Top 50 tabs Artists:  A B C D E F G H I J K L M N O P Q R S T U V W X Y Z 0-9

Underdog Guitar Tabs – Yellowcard

CD, Sheet music, Poster

Do you like Underdog? Share with your friends now
TabsTabs v2


DROP D TUNING!!!

... - palm mute
/ \ - slide
p   - pull off
3x  - mute after strumming
~   - let ring out


GUITAR 1'S PARTS:
-----------------
Intro:
e|---------------------------------------------------------------------------|
B|---------------------------------------------------------------------------|
G|----5-----5-----5-----5-----5-----5-----5-----5----------------------------|
D|3-3---3-3---3-3---3-3---3-3---3-3---3-3---3-3-------0-0-0-0-0-0-0-0-0-0-0-0|
A|----------------------------------------------------0-0-0-0-0-0-0-0-0-0-0-0|
D|------------------------------------------------12/-0-0-0-0-0-0-0-0-0-0-0-0|

Intro Cont'd:
e|---------------------------------------------------------------------------|
B|---------------------------------------------------------------------------|
G|--------------------------------------------3---2---0--------3---2--0------|
D|0-0-0-0-3-3-3-3-3-3-3-3-3-3-3-3-3-3-3-3-5-5---5---5---3-5-5---5---5---3----|
A|0-0-0-0-3-3-3-3-3-3-3-3-3-3-3-3-3-3-3-3------------------------------------|
D|0-0-0-0-3-3-3-3-3-3-3-3-3-3-3-3-3-3-3-3------------------------------------|
                                          ...   .   .     ...   .   .

Intro Cont'd:
e|---------------------------------------------------------------------------|
B|---------------------------------------------------------------------------|
G|----3---2---0-------3---2---0----------------------------------------------|
D|--------------3---------------3x--0-0-0-0-0-0-0-0-0-0-0-0-0-0-0-0-3-3-3-3-3|
A|1-1---1---1-----1-1---1---1-------0-0-0-0-0-0-0-0-0-0-0-0-0-0-0-0-3-3-3-3-3|
D|----------------------------------0-0-0-0-0-0-0-0-0-0-0-0-0-0-0-0-3-3-3-3-3|
  ...   .   .     ...   .   .

Intro Cont'd:
e|---------------------------------------------------------------------------|
B|---------------------------------------------------------------------------|
G|--------------------------3---2---0-------3---2---0-------3---2---0-------3|
D|3-3-3-3-3-3-3-3-3-3-3-5-5---5---5---3-5-5---5---5---3---------------3------|
A|3-3-3-3-3-3-3-3-3-3-3---------------------------------1-1---1---1-----1-1--|
D|3-3-3-3-3-3-3-3-3-3-3------------------------------------------------------|
                        ...   .   .     ...   .   .     ...   .   .     ...

Intro Cont'd:
e|---------------------------------------------------------------------------|
B|---------------------------------------------------------------------------|
G|--2---0--------------------------------------------------------------------|
D|--------3x-----------------------------------------------------------------|
A|1---1----------------------------------------------------------------------|
D|---------------------------------------------------------------------------|
  .   .

Verse:  (Don't play)

Pre Chorus:  "Left out..."
e|---------------------------------------------------------------------------|
B|---------------------------------------------------------------------------|
G|------5-5x--7-7x--3-3x--------5-5x--7-7x--3-3-3-3--------------------------|
D|3-3x--5-5x--7-7x--3-3x--3-3x--5-5x--7-7x--3-3-3-3-3-3-3-3------------------|
A|3-3x--3-3x--5-5x--1-1x--3-3x--3-3x--5-5x--1-1-1-1-0-0-0-0------------------|
D|3-3x--------------------3-3x-----------------------------------------------|

Chorus:  "No doubt..."  (2x)
e|---------------------------------------------------------------------------|
B|---------------------------------------------------------------------------|
G|----------------5-5-5-5-5-5-5-5-7-7-7-7-7-7-7-7-3-3-3-3-3-3-3-3------------|
D|3-3-3-3-3-3-3-3-5-5-5-5-5-5-5-5-7-7-7-7-7-7-7-7-3-3-3-3-3-3-3-3------------|
A|3-3-3-3-3-3-3-3-3-3-3-3-3-3-3-3-5-5-5-5-5-5-5-5-1-1-1-1-1-1-1-1------------|
D|3-3-3-3-3-3-3-3------------------------------------------------------------|

Repeat Intro

2nd Verse:  (You figure out strumming)  (2x)
e|---------------------------------------------------------------------------|
B|---------------------------------------------------------------------------|
G|---------------------------------------------------------------------------|
D|---------------3------3----------------------------------------------------|
A|0----3----5----1--1-1------------------------------------------------------|
D|0----3----5----------------------------------------------------------------|
                    ...

Repeat Pre Chorus

Repeat Chorus

Bridge:  (You figure out how many times to do each part)
e|-----------|---------------------------------------------------------------|
B|-----------|---------------------------------------------------------------|
G|-------5---|-------5-------------------------------------------------------|
D|-----3---3-|-----3---3-----------------------------------------------------|
A|-----------|-5-5-----------------------------------------------------------|
D|-3-3-------|---------------------------------------------------------------|

Solo:
e|-5-3~---------------5-----5------------------------------------------------|
B|-------6-5-6----6-8---6~----8-6-5-8-6-5---6-5---5--------------------------|
G|-------------5--------------------------7-----7----------------------------|
D|--------------------------------------------------5/7--5~--3~--------------|
A|---------------------------------------------------------------------------|
D|---------------------------------------------------------------------------|

Repeat Chorus

GUITAR 2'S PARTS:
-----------------
Intro:
e|---------------------------------------------------------------------------|
B|---------------------------------------------------------------------------|
G|----5-----5-----5-----5-----5-----5-----5-----5----------------------------|
D|3-3---3-3---3-3---3-3---3-3---3-3---3-3---3-3-------0-0-0-0-0-0-0-0-0-0-0-0|
A|----------------------------------------------------0-0-0-0-0-0-0-0-0-0-0-0|
D|------------------------------------------------12/-0-0-0-0-0-0-0-0-0-0-0-0|

Intro Cont'd:
e|---------------------------------------------------------------------------|
B|---------------------------------------------------------------------------|
G|--------------------------------------------7---5-----------7---5----------|
D|0-0-0-0-3-3-3-3-3-3-3-3-3-3-3-3-3-3-3-3-5-5---5---5-8p7-5-5---5---5-8p7----|
A|0-0-0-0-3-3-3-3-3-3-3-3-3-3-3-3-3-3-3-3------------------------------------|
D|0-0-0-0-3-3-3-3-3-3-3-3-3-3-3-3-3-3-3-3------------------------------------|
                                          ...   .   .     ...   .   .

Intro Cont'd:
e|---------------------------------------------------------------------------|
B|----3---1-----------3---1--------------------------------------------------|
G|---------------------------------------------------------------------------|
D|3-3---3---3-3p2-3-3---3---3-3p2x--0-0-0-0-0-0-0-0-0-0-0-0-0-0-0-0-3-3-3-3-3|
A|----------------------------------0-0-0-0-0-0-0-0-0-0-0-0-0-0-0-0-3-3-3-3-3|
D|----------------------------------0-0-0-0-0-0-0-0-0-0-0-0-0-0-0-0-3-3-3-3-3|
  ...   .   .     ...   .   .

Intro Cont'd:
e|---------------------------------------------------------------------------|
B|----------------------------------------------------------3---1-----------3|
G|--------------------------7---5-----------7---5-------3-3---3---3-3p2-3-3--|
D|3-3-3-3-3-3-3-3-3-3-3-5-5---5---5-8p7-5-5---5---5-8p7----------------------|
A|3-3-3-3-3-3-3-3-3-3-3------------------------------------------------------|
D|3-3-3-3-3-3-3-3-3-3-3------------------------------------------------------|
                        ...   .   .     ...   .   .     ...   .   .     ...

Intro Cont'd:
e|---------------------------------------------------------------------------|
B|--1------------------------------------------------------------------------|
G|3---3-3p2x-----------------------------------------------------------------|
D|---------------------------------------------------------------------------|
A|---------------------------------------------------------------------------|
D|---------------------------------------------------------------------------|
  .   .

Verse:  (Come in on 2nd time)
e|------------------------------5---5-6-5------------------------------------|
B|--------------------------6-8---6------------------------------------------|
G|------------------7~-------------------------------------------------------|
D|-------------8~------------------------------------------------------------|
A|-5~----8~------------------------------------------------------------------|
D|---------------------------------------------------------------------------|

Pre Chorus:  "Left out..." (2x)
e|---------------------------------------------------------------------------|
B|---------------------------------------------------------------------------|
G|-------10----10----10----------9----9----9----------10----10----10---------|
D|-12-12----12----12----12-10-10---10---10---10-12-12----12----12----12-10-10|
A|---------------------------------------------------------------------------|
D|---------------------------------------------------------------------------|

Pre Chorus Cont'd:
e|---------------------------------------------------------------------------|
B|---------------------------------------------------------------------------|
G|9----9----9h10-------------------------------------------------------------|
D|--10---10------------------------------------------------------------------|
A|---------------------------------------------------------------------------|
D|---------------------------------------------------------------------------|

Chorus:  "No doubt..."  (2x)
e|---------------------------------------------------------------------------|
B|---------------------------------------------------------------------------|
G|----------------5-5-5-5-5-5-5-5-----------------3-3-3-3-3-3-3-3------------|
D|3-3-3-3-3-3-3-3-5-5-5-5-5-5-5-5-0-0-0-0-0-0-0-0-3-3-3-3-3-3-3-3------------|
A|3-3-3-3-3-3-3-3-3-3-3-3-3-3-3-3-0-0-0-0-0-0-0-0-1-1-1-1-1-1-1-1------------|
D|3-3-3-3-3-3-3-3-----------------0-0-0-0-0-0-0-0----------------------------|

Repeat Intro

2nd Verse:  (You figure out strumming)  (2x)
e|---------------------------------------------------------------------------|
B|---------------------------------------------------------------------------|
G|---------------------------------------------------------------------------|
D|---------------3------3----------------------------------------------------|
A|0----3----5----1--1-1------------------------------------------------------|
D|0----3----5----------------------------------------------------------------|
                    ...

Repeat Pre Chorus

Repeat Chorus

Bridge:  (You can figure out how it goes)
e|------------------------------5~-------------------------------------------|
B|-----5---6-8-6~-------5---6-8----------------------------------------------|
G|-5-7---7----------5-7---7--------------------------------------------------|
D|---------------------------------------------------------------------------|
A|---------------------------------------------------------------------------|
D|---------------------------------------------------------------------------|

Solo:  (Play Chorus Chords)

Repeat Chorus





Comments


Popular Yellowcard tabs & chords
View From Heaven 2 Bass Tabs
Gifts And Curses Chords
Be The Young 1 Tabs
Breathing Live Tabs
Holly Wood Died 1 Tabs
Only One 4 Tabs
Surface Of The Sun Tabs
Words Hands Hearts Intro Tabs
Holly Wood Died Ukulele
Rough Draft Ukulele


Song lyrics



↑ Back to top | Tablatures and chords are parodies/interpretations of the original songs. You may use it for private study, scholarship, research or language learning purposes only
© 2014 AZChords.com Contact us | Privacy policy | DMCA | Add/correct tabs | Request tabs | Top 50 tabs