>
 >
Underdog 1

Underdog 1 Guitar Tabs

Yellowcard - Underdog 1 chords, tabs, tablatures, lyrics

Guitar lessons | Add/correct | Request | Top 50 tabs Artists:  A B C D E F G H I J K L M N O P Q R S T U V W X Y Z 0-9

Underdog 1 Guitar Tabs – Yellowcard

CD, Sheet music, Poster

Do you like Underdog 1? Share with your friends now
TabsTabs v2
Yellowcard - underdog
Awesome song from thier EP 

palm mute .....
let ring  *****
pull off  ppppp

 
intro RYTHYM GUITAR
e-----------------    E
b-----------------    B
G-----------------    G
D-333-333-333-333- X2 D
A-333-333-333-333-    A
E-111-111-111-111-    E

INTRO if you dont have a violist you could have another guitar playing

e---------
B-6-6-6-6- LISTEN TO SONG TO GET TIMEING
G-5-5-5-5-
D---------
A---------
E---------

PRE VERSE LEAD AND RYTHYM GUITAR 

e-----------------------------
B-----------------------------
G------7777------5555---------
D-7777-7777-5555-5555---------
A-7777-5555-5555-3333---------
E-5555------3333--------------

Violin guitar

e------------------ 
b-----5p6-----4p5--
G-5-6-----4-5------ 
D------------------ 
A------------------
E------------------ 

Verse 

violin guitar

e--------------------------------------------
B--7*----------------------------------------
G----------7*----889*------10-10-11*-----13*-
D--------------------------------------------
A--------------------------------------------
E--------------------------------------------

chorus LEAD AND RYTHYM

E--------------------------------------------------------------------
B--------------------------------------------------------------------
G----55-77-33----55-77-3333------5555-7777-3333------5555-7777-3333--
D-33-55-77-33-33-55-77-3333-3333-5555-7777-3333-3333-5555-7777-3333--
A-33-33-55-11-33-33-55-1111-3333-3333-5555-1111-3333-3333-5555-1111--
E-11----------11------------1111----------------1111-----------------

POST CHORUS

violin guitar

e---------
B-6-6-6-6-
G-5-5-5-5-
D---------
A---------
E---------

PRE VERSE 

RYTHYM AND LEAD GUITAR

E---------------------
B---------------------
G------7777------5555-
D-7777-7777-5555-5555-
A-7777-5555-5555-3333-
E-5555------3333------

VIOLIN GUITAR

E-------------------
B-----5P6------4P5--
G-5-6------4-5------
D-------------------
A-------------------
E-------------------

VERSE 2

LEAD AND RYTHYM GUITAR

E-------------------------------------------------
B-------------------------------------------------
G-------------55-55-55-55-------------77-77-77-77-
D-77-77-77-77-55-55-55-55-33-33-33-33-77-77-77-77-
A-77-77-77-77-33-33-33-33-33-33-33-33-55-55-55-55-
E-55-55-55-55-------------11-11-11-11-------------
  .. .. .. .. .. .. .. .. .. .. .. .. .. .. .. ..

violin guitar

e-------------------------------------------------------------------
B-------------------------------------------------------------------
G-77777777-99999999-11-11-11-11-11-11-11-11-13-13-13-13-13-13-13-13-
D-------------------------------------------------------------------
A-------------------------------------------------------------------
E-------------------------------------------------------------------

Pre chorus

VIOLIN GUITAR

e---------
B-----678-
G-7P5-----
D---------
A---------
E---------

Chorus 2

Lead and Rythym Guitar

e-------------------------------------------------------------------
B-------------------------------------------------------------------
G----55-77-33----55-77-3333------5555-7777-3333------5555-7777-3333-
D-33-55-77-33-33-55-77-3333-3333-5555-7777-3333-3333-5555-7777-3333-
A-33-33-55-11-33-33-55-1111-3333-3333-5555-1111-3333-3333-5555-1111-
E-11----------11------------1111----------------1111----------------

and then 

Rythym guitar

e---------------------
b---------------------
g------5555-7777-3333-
d-3333-5555-7777-3333-
a-3333-3333-5555-1111-
e-1111----------------

Lead guitar

e---------------------
b---------------------
g------5*---7*---3*---
d-3*---5*---7*---3*---
a-3*---3*---5*---1*---
e-1*------------------

Solo

lead guitar

e--------------------------------------------------------------
b-----------------------6-8-6----------------------------------
g-5-7-5---5-7-5---5-7-5---------5-7-5*------5-7-5*------5-7-5*-
d--------------------------------------------------------------
a--------------------------------------------------------------
e--------------------------------------------------------------

e-----------------------------------------------------------------------
b------6-8-------6-8------6-8------6-8------8-10------8-10-------8-10---
g-5555------5555-----5555-----5555-----7777------7777-------7777-----77-
d-----------------------------------------------------------------------
a-----------------------------------------------------------------------
e-----------------------------------------------------------------------
  ....      ....     ....     ....     ....      ....       ....  

violin guitar 

cannot be played by a guitar


AFTER SOLO

rythym guitar

e---------------------
b---------------------
g------55-5-77-7-33-3-
d-33-3-55-5-77-7-33-3- x2
a-33-3-33-3-55-5-11-1-
e-11-1----------------

Lead guitar

e------------------------------------------------
b------------------------------------------------
g-5-7-4-55-77-44-66-5-7-99-77-55-66--4444-55-5-5-
d------------------------------------------------
a------------------------------------------------
e------------------------------------------------

Last chorus

rythym and lead guitar

e--------------------      --------------
b--------------------      -------------- 
g------5555-7777-3333      ---55-77-33-3-
d-3333-5555-7777-3333 x3   33-55-77-33-3-
a-3333-3333-5555-1111      33-33-55-11-1-
e-1111---------------      11------------


that is the whole song





Comments


Popular Yellowcard tabs & chords
Cut Me Mick Bass Tabs
Twenty Three Bass Tabs
Breathing 2 Chords
Rough Draft Chords
A.W.O.L. Tabs
Believe 3 Tabs
For You And Your Denial 1 Tabs
Holly Wood Died 4 Tabs
Way Away 1 Tabs
Way Away 2 Tabs


Song lyrics



↑ Back to top | Tablatures and chords are parodies/interpretations of the original songs. You may use it for private study, scholarship, research or language learning purposes only
© 2014 AZChords.com Contact us | Privacy policy | DMCA | Add/correct tabs | Request tabs | Top 50 tabs