>
 >
Trembling 1

Trembling 1 Guitar Tabs

Yellowcard - Trembling 1 chords, tabs, tablatures, lyrics

Guitar lessons | Add/correct | Request | Top 50 tabs Artists:  A B C D E F G H I J K L M N O P Q R S T U V W X Y Z 0-9

Trembling 1 Guitar Tabs – Yellowcard

CD, Sheet music, Poster

Do you like Trembling 1? Share with your friends now
TabsTabs v2
Drop D Tuning 

pm = palm mute 
\ = slide 
h = hammer on 
p = pull off 
~ = let ring out 

7x 
7x = mute strings after strum 
5x 

------------------ 
LEAD GUITAR ONLY
------------------ 

INTRO(x2)
e|---------------------------------------------------------------------------| 
B|---------------------------------------------------------------------------| 
G|----------------------------------------------------4-----2----------------| 
D|------5-----4-----5-----4-----0---------5-----4-------5p2---4p0-4h5--------| 
A|----2---5-5---5-5---5-5---5-5---------2---5-5---5-5------------------------| 
E|-0~--------------------------------0~--------------------------------------| 

INTRO CON't 
e|---------------------------------------------------------------------------| 
B|---------------------------------------------------------------------------| 
G|---------------------------------------------------------------------------| 
D|------5-----4-----5-----4-----0---------5-----4-----0-4-4-4-4h5~-----------| 
A|----2---5-5---5-5---5-5---5-5---------2---5-5---5-5------------------------| 
E|-0~--------------------------------0~--------------------------------------| 

VERSE 
e|---------------------------------------------------------------------------| 
B|---------------------------------------------------------------------------| 
G|-5~----------------4~------------------5~------------------4~--------------| 
D|-5~----------------5~------------------5~------------------5~--------------| 
A|-3~----------------2~------------------3~------------------2~--------------| 
D|---------------------------------------------------------------------------| 

e|---------------------------------------------------------------------------| 
B|---------------------------------------------------------------------------| 
G|-4-4--4--4--4-5-5--5-4-4--4------------------------------4-4--4--4--4-5-5--| 
D|-5-5--5--5--5-5-5--5-5-5--5----------------------4h5p4-0-5-5--5--5--5-5-5--| 
A|-2-2--2--2--2-3-3--3-2-2--2-0-0--0-0-0--0-0-0--0---------2-2--2--2--2-3-3--| 
D|----------------------------0-0--0-0-0--0-0-0--0---------------------------| 
pm ... ... . 

e|---------------------------------------------------------------------------| 
B|---------------------------------------------------------------------------| 
G|-5-4-4--4-7-7--7--7--7-7x--------------------------------------------------| 
D|-5-5-5--5-7-7--7--7--7-7x------4h5p4-0-------------------------------------| 
A|-3-2-2--2-5-5--5--5--5-5x--------------------------------------------------| 
D|---------------------------------------------------------------------------| 

PRE CHORUS 
e|---------------------------------------------------------------------------| 
B|---------------------------------------------------------------------------| 
G|-4-4--4--4--4-4-4--4--4--4-4-4--4--4--4-4-4--4--4--4-----------------------| 
D|-2-2--2--2--2-2-2--2--2--2-2-2--2--2--2-2-2--2--2--2-4-4--4--4--4-4-4--4--4| 
A|-2-2--2--2--2-2-2--2--2--2-2-2--2--2--2-2-2--2--2--2-5-5--5--5--5-5-5--5--5| 
D|-2-2--2--2--2-2-2--2--2--2-2-2--2--2--2-2-2--2--2--2-4-4--4--4--4-4-4--4--4| 

e|---------------------------------------------------------------------------| 
B|---------------------------------------------------------------------------| 
G|-----------------------------4-4--4--4--4-4-4--4--4--4-4-4--4--4--4-4-4--4-| 
D|-4-4-4--4--4--4-4-4--4--4--4-2-2--2--2--2-2-2--2--2--2-2-2--2--2--2-2-2--2-| 
A|-5-5-5--5--5--5-5-5--5--5--5-2-2--2--2--2-2-2--2--2--2-2-2--2--2--2-2-2--2-| 
D|-4-4-4--4--4--4-4-4--4--4--4-2-2--2--2--2-2-2--2--2--2-2-2--2--2--2-2-2--2-| 
pm. 

e|---------------------------------------------------------------------------| 
B|---------------------------------------------------------------------------| 
G|-4--4----------------------------------------------------------------------| 
D|-2--2-4-4--4--4--4-4-4--4--4--4-4-4--4--4--4-4-4--4--4--4------------------| 
A|-2--2-5-5--5--5--5-5-5--5--5--5-5-5--5--5--5-5-5--5--5--5------------------| 
D|-2--2-4-4--4--4--4-4-4--4--4--4-4-4--4--4--4-4-4--4--4--4------------------| 

CHORUS (x2) 
e|---------------------------------------------------------------------------| 
B|---------------------------------------------------------------------------| 
G|-----------------------------------------------------5-5--5--5--5-5-5--5---| 
D|-----------------------------------------------------5-5--5--5--5-5-5--5---| 
A|-5-5--5--5--5-5-5--5--5--5-2-2--2--2--2-2-2--2--2--2-3-3--3--3--3-3-3--3---| 
D|-5-5--5--5--5-5-5--5--5--5-2-2--2--2--2-2-2--2--2--2-----------------------| 

e|----------------------------------|----------------------------------------| 
B|----------------------------------|----------------------------------------| 
G|--5--5-4-4--4--4--4-4-4--4--4--4--|--5--5-4-4--4--4--4-4-4--4--4-4-4-------| 
D|--5--5-5-5--5--5--5-5-5--5--5--5--|--5--5-5-5--5--5--5-5-5--5--5-5-5-------| 
A|--3--3-2-2--2--2--2-2-2--2--2--2--|--3--3-2-2--2--2--2-2-2--2--2-2-2-------| 
D|----------------------------------|----------------------------------------| 
pm... 
INTERLUDE (x2) 
e|---------------------------------------------------------------------------| 
B|---------------------------------------------------------------------------| 
G|-----------------------------------------------------------------5-5-5-5x--| 
D|-----------------------------------------------------------------5-5-5-5x--| 
A|-2-2-2-2x--2-2-2x--2-2x--2-2-2-2-0-0-0-0x--0-0-0x--0-0x--0-0-0-0-3-3-3-3x--| 
D|-2-2-2-2x--2-2-2x--2-2x--2-2-2-2-0-0-0-0x--0-0-0x--0-0x--0-0-0-0-----------| 

e|---------------------------------------------------------------------------| 
B|---------------------------------------------------------------------------| 
G|-5-5-5x--5-5x--5-5-5-5-----------------------------------------------------| 
D|-5-5-5x--5-5x--5-5-5-5-----------------------------------------------------| 
A|-3-3-3x--3-3x--3-3-3-3-0-0-0-0x--0-0-0x--0-0x--0-0-0-0---------------------| 
D|-----------------------0-0-0-0x--0-0-0x--0-0x--0-0-0-0---------------------| 

INTRO AGAIN

2ND VERSE / OUTRO 
e|---------------------------------------------------------------------------| 
B|---------------------------------------------------------------------------| 
G|-5~----------------4~------------------5~------------------4~--------------| 
D|-5~----------------5~------------------5~------------------5~--------------| 
A|-3~----------------2~------------------3~------------------2~--------------| 
D|---------------------------------------------------------------------------| 

e|---------------------------------------------------------------------------| 
B|---------------------------------------------------------------------------| 
G|-4-4--4--4--4-5-5--5-4-4-4------------------------------4-4--4--4--4-5-5---| 
D|-5-5--5--5--5-5-5--5-5-5-5---0------4------0----4h5p4-0-5-5--5--5--5-5-5---| 
A|-2-2--2--2--2-3-3--3-2-2-2-0----0-0----0-0----0---------2-2--2--2--2-3-3---| 
D|---------------------------0----0-0----0-0----0----------------------------| 
pm ... ... . 

e|--------------------------------------2~-----------------------------------| 
B|--------------------------------------3~-----------------------------------| 
G|-5-4-4-4-7-7--7--7--7-7-7--7----------4~-----------------------------------| 
D|-5-5-5-5-7-7--7--7--7-7-7--7-4h5p4-0--2~-----------------------------------| 
A|-3-2-2-2-5-5--5--5--5-5-5--5----------2~-----------------------------------| 
D|--------------------------------------2~-----------------------------------| 
pm.....





Comments


Popular Yellowcard tabs & chords
A.W.O.L Chords
Afraid Chords
Believe 2 Chords
Cigarette Chords
One Year, Six Months 2 Tabs
Surface Of The Sun Tabs
Two Weeks From Twenty 4 Tabs
Holly Wood Died Ukulele
Ocean Avenue Ukulele
Promises Ukulele


Song lyrics



↑ Back to top | Tablatures and chords are parodies/interpretations of the original songs. You may use it for private study, scholarship, research or language learning purposes only
© 2014 AZChords.com Contact us | Privacy policy | DMCA | Add/correct tabs | Request tabs | Top 50 tabs