>
 >
Trembling

Trembling Guitar Tabs

Yellowcard - Trembling chords, tabs, tablatures, lyrics

Guitar lessons | Add/correct | Request | Top 50 tabs Artists:  A B C D E F G H I J K L M N O P Q R S T U V W X Y Z 0-9

Trembling Guitar Tabs – Yellowcard

CD, Sheet music, Poster

Do you like Trembling? Share with your friends now
TabsTabs v2


Drop D Tuning 

pm - palm mute 
* - harmonic 
\ - slide 
h - hammer on 
p - pull off 
~ - let ring out 

7x 
7x - mute strings after strum 
5x 

I think they recorded the intro in regular E tuning. I dont know if they 
play this song live because the rest of the song is in drop D, and the intro 
is a lot easier to play in regular tuning. If you wanna play it in D, tune 
your guitar and move the first note to the second fret. 

------------------ 
GUITAR ONE PARTS 
------------------ 

INTRO(x2) (in E) "Trembling..." 
e|---------------------------------------------------------------------------| 
B|---------------------------------------------------------------------------| 
G|----------------------------------------------------4-----2----------------| 
D|------5-----4-----5-----4-----0---------5-----4-------5p2---4p0-4h5--------| 
A|----2---5-5---5-5---5-5---5-5---------2---5-5---5-5------------------------| 
E|-0~--------------------------------0~--------------------------------------| 

INTRO CON't 
e|---------------------------------------------------------------------------| 
B|---------------------------------------------------------------------------| 
G|---------------------------------------------------------------------------| 
D|------5-----4-----5-----4-----0---------5-----4-----0-4-4-4-4h5~-----------| 
A|----2---5-5---5-5---5-5---5-5---------2---5-5---5-5------------------------| 
E|-0~--------------------------------0~--------------------------------------| 

VERSE "I'm torn between silence and violent expression..." 
e|---------------------------------------------------------------------------| 
B|---------------------------------------------------------------------------| 
G|-5~----------------4~------------------5~------------------4~--------------| 
D|-5~----------------5~------------------5~------------------5~--------------| 
A|-3~----------------2~------------------3~------------------2~--------------| 
D|---------------------------------------------------------------------------| 

e|---------------------------------------------------------------------------| 
B|---------------------------------------------------------------------------| 
G|-4-4--4--4--4-5-5--5-4-4--4------------------------------4-4--4--4--4-5-5--| 
D|-5-5--5--5--5-5-5--5-5-5--5----------------------4h5p4-0-5-5--5--5--5-5-5--| 
A|-2-2--2--2--2-3-3--3-2-2--2-0-0--0-0-0--0-0-0--0---------2-2--2--2--2-3-3--| 
D|----------------------------0-0--0-0-0--0-0-0--0---------------------------| 
pm ... ... . 
e|---------------------------------------------------------------------------| 
B|---------------------------------------------------------------------------| 
G|-5-4-4--4-7-7--7--7--7-7x--------------------------------------------------| 
D|-5-5-5--5-7-7--7--7--7-7x------4h5p4-0-------------------------------------| 
A|-3-2-2--2-5-5--5--5--5-5x--------------------------------------------------| 
D|---------------------------------------------------------------------------| 

PRE CHORUS "...never having anyone..." 
e|---------------------------------------------------------------------------| 
B|---------------------------------------------------------------------------| 
G|-4-4--4--4--4-4-4--4--4--4-4-4--4--4--4-4-4--4--4--4-----------------------| 
D|-2-2--2--2--2-2-2--2--2--2-2-2--2--2--2-2-2--2--2--2-4-4--4--4--4-4-4--4--4| 
A|-2-2--2--2--2-2-2--2--2--2-2-2--2--2--2-2-2--2--2--2-5-5--5--5--5-5-5--5--5| 
D|-2-2--2--2--2-2-2--2--2--2-2-2--2--2--2-2-2--2--2--2-4-4--4--4--4-4-4--4--4| 

e|---------------------------------------------------------------------------| 
B|---------------------------------------------------------------------------| 
G|-----------------------------4-4--4--4--4-4-4--4--4--4-4-4--4--4--4-4-4--4-| 
D|-4-4-4--4--4--4-4-4--4--4--4-2-2--2--2--2-2-2--2--2--2-2-2--2--2--2-2-2--2-| 
A|-5-5-5--5--5--5-5-5--5--5--5-2-2--2--2--2-2-2--2--2--2-2-2--2--2--2-2-2--2-| 
D|-4-4-4--4--4--4-4-4--4--4--4-2-2--2--2--2-2-2--2--2--2-2-2--2--2--2-2-2--2-| 
pm. 
e|---------------------------------------------------------------------------| 
B|---------------------------------------------------------------------------| 
G|-4--4----------------------------------------------------------------------| 
D|-2--2-4-4--4--4--4-4-4--4--4--4-4-4--4--4--4-4-4--4--4--4------------------| 
A|-2--2-5-5--5--5--5-5-5--5--5--5-5-5--5--5--5-5-5--5--5--5------------------| 
D|-2--2-4-4--4--4--4-4-4--4--4--4-4-4--4--4--4-4-4--4--4--4------------------| 

CHORUS (x2) "Haunted by my abandoned dreams..." 
e|---------------------------------------------------------------------------| 
B|---------------------------------------------------------------------------| 
G|-----------------------------------------------------5-5--5--5--5-5-5--5---| 
D|-----------------------------------------------------5-5--5--5--5-5-5--5---| 
A|-5-5--5--5--5-5-5--5--5--5-2-2--2--2--2-2-2--2--2--2-3-3--3--3--3-3-3--3---| 
D|-5-5--5--5--5-5-5--5--5--5-2-2--2--2--2-2-2--2--2--2-----------------------| 

e|-------(first-time)---------------|----------(second-time)-----------------| 
B|----------------------------------|----------------------------------------| 
G|--5--5-4-4--4--4--4-4-4--4--4--4--|--5--5-4-4--4--4--4-4-4--4--4-4-4-------| 
D|--5--5-5-5--5--5--5-5-5--5--5--5--|--5--5-5-5--5--5--5-5-5--5--5-5-5-------| 
A|--3--3-2-2--2--2--2-2-2--2--2--2--|--3--3-2-2--2--2--2-2-2--2--2-2-2-------| 
D|----------------------------------|----------------------------------------| 
pm... 
INTERLUDE (x2) 
e|---------------------------------------------------------------------------| 
B|---------------------------------------------------------------------------| 
G|-----------------------------------------------------------------5-5-5-5x--| 
D|-----------------------------------------------------------------5-5-5-5x--| 
A|-2-2-2-2x--2-2-2x--2-2x--2-2-2-2-0-0-0-0x--0-0-0x--0-0x--0-0-0-0-3-3-3-3x--| 
D|-2-2-2-2x--2-2-2x--2-2x--2-2-2-2-0-0-0-0x--0-0-0x--0-0x--0-0-0-0-----------| 

e|---------------------------------------------------------------------------| 
B|---------------------------------------------------------------------------| 
G|-5-5-5x--5-5x--5-5-5-5-----------------------------------------------------| 
D|-5-5-5x--5-5x--5-5-5-5-----------------------------------------------------| 
A|-3-3-3x--3-3x--3-3-3-3-0-0-0-0x--0-0-0x--0-0x--0-0-0-0---------------------| 
D|-----------------------0-0-0-0x--0-0-0x--0-0x--0-0-0-0---------------------| 

REPEAT INTRO 

2ND VERSE / OUTRO "We will be together in search of a new life..." 
e|---------------------------------------------------------------------------| 
B|---------------------------------------------------------------------------| 
G|-5~----------------4~------------------5~------------------4~--------------| 
D|-5~----------------5~------------------5~------------------5~--------------| 
A|-3~----------------2~------------------3~------------------2~--------------| 
D|---------------------------------------------------------------------------| 

e|---------------------------------------------------------------------------| 
B|---------------------------------------------------------------------------| 
G|-4-4--4--4--4-5-5--5-4-4-4------------------------------4-4--4--4--4-5-5---| 
D|-5-5--5--5--5-5-5--5-5-5-5---0------4------0----4h5p4-0-5-5--5--5--5-5-5---| 
A|-2-2--2--2--2-3-3--3-2-2-2-0----0-0----0-0----0---------2-2--2--2--2-3-3---| 
D|---------------------------0----0-0----0-0----0----------------------------| 
pm ... ... . 
e|--------------------------------------2~-----------------------------------| 
B|--------------------------------------3~-----------------------------------| 
G|-5-4-4-4-7-7--7--7--7-7-7--7----------4~-----------------------------------| 
D|-5-5-5-5-7-7--7--7--7-7-7--7-4h5p4-0--2~-----------------------------------| 
A|-3-2-2-2-5-5--5--5--5-5-5--5----------2~-----------------------------------| 
D|--------------------------------------2~-----------------------------------| 
pm..... 
------------------ 
GUITAR TWO PARTS 
------------------ 

VERSE 
e|---------------------------------------------------------------------------| 
B|---------------------------------------------------------------------------| 
G|-5~----------------7~------------------9~--------5~--------7~--------------| 
D|---------------------------------------------------------------------------| 
A|-3~----------------5~------------------7~--------3~--------5~--------------| 
D|------------------------------0------------------------------------0-------| 

e|---------------------------------------------------------------------------| 
B|---------------------------------------------------------------------------| 
G|-/9-9--9--9--9-9-9--9-9-9--9------------------------------9-9--9--9--9-9-9-| 
D|-/9-9--9--9--9-9-9--9-9-9--9-0-0--0-0-4--0-0-0--0-7h9p7---9-9--9--9--9-9-9-| 
A|-/7-7--7--7--7-7-7--7-7-7--7----------------------------9-7-7--7--7--7-7-7-| 
D|---------------------------------------------------------------------------| 
pm ... ... . 
e|---------------------------------------------------------------------------| 
B|---------------------------------------------------------------------------| 
G|-9--9-9-9-7-7--7--7--7-7x------2h4p2---------------------------------------| 
D|-9--9-9-9----------------------------4-------------------------------------| 
A|-7--7-7-7-5-5--5--5--5-5x--------------------------------------------------| 
D|---------------------------------------------------------------------------| 

PRE CHORUS "...never having anyone..." 
e|---------------------------------------------------------------------------| 
B|---------------------------------------------------------------------------| 
G|-4-4--4--4--4-11-11--11--11--11-12-12--12--12--12-11-11--11--11--11-16-16--| 
D|---------------------------------------------------------------------------| 
A|-2-2--2--2--2--9--9---9---9---9-10-10--10--10--10--9--9---9---9---9-14-14--| 
D|---------------------------------------------------------------------------| 

e|---------------------------------------------------------------------------| 
B|---------------------------------------------------------------------------| 
G|-16--16--16-11-11--11--11--11-9-9--9--9--9-7-7--7--7--7---0--4--4--4-11-11-| 
D|--------------------------------------------------------2------------------| 
A|-14--14--14--9--9---9---9---9-7-7--7--7--7-5-5--5--5--5------2--2--2--9--9-| 
D|---------------------------------------------------------------------------| 
pm. 
e|---------------------------------------------------------------------------| 
B|---------------------------------------------------------------------------| 
G|-11--11--11-12-12--12--12--12-11-11--11--11--11-16-16--16--16--16-11-11----| 
D|---------------------------------------------------------------------------| 
A|--9---9---9-10-10--10--10--10--9--9---9---9---9-14-14--14--14--14--9--9----| 
D|---------------------------------------------------------------------------| 

e|---------------------------------------------------------------------------| 
B|---------------------------------------------------------------------------| 
G|-11--11--11-9-9--9--9--9-7-7--7--7--7--------------------------------------| 
D|---------------------------------------------------------------------------| 
A|--9---9---9-7-7--7--7--7-5-5--5--5--5--------------------------------------| 
D|---------------------------------------------------------------------------| 

CHORUS (x2) "Haunted by my abandoned dreams..." 
e|---------------------------------------------------------------------------| 
B|---------------------------------------------------------------------------| 
G|4-4--4--4--4-4-4--4--4--4-9-9--9--9--9-9-9--9--9--9-16-16--16--16--16-11-11| 
D|---------------------------------------------------------------------------| 
A|2-2--2--2--2-2-2--2--2--2-7-7--7--7--7-7-7--7--7--7-14-14--14--14--14--9--9| 
D|---------------------------------------------------------------------------| 

e|--------(first-time)-----------------|---------(second-time)---------------| 
B|-------------------------------------|-------------------------------------| 
G|11--11--11-7-7--7--7--7-7-7--7--7--7-|11--11--11-7-7--7--7--7-7-7--7--7-7-7| 
D|-------------------------------------|-------------------------------------| 
A|-9---9---9-5-5--5--5--5-5-5--5--5--5-|-9---9---9-5-5--5--5--5-5-5--5--5-5-5| 
D|-------------------------------------|-------------------------------------| 
pm... 
INTERLUDE (x2) 
e|-----7-8--7---------------------------------------------------0--0--0--0--0| 
B|---8--------10--8--7--------------7-8--7--10--8-7------------12-12-12-12-12| 
G|-9-------------------9-7--------7-----------------9-7----------------------| 
D|-------------------------10-9-9-----------------------10-9-7---------------| 
A|---------------------------------------------------------------------------| 
D|---------------------------------------------------------------------------| 

e|--0--0--0--0--0-0-0--0--0-0-0--0--0--0--0--0--0--0--0--0--0-0-0--0--0-0-0--| 
B|-12-12-10-10-10-8-8-10-10-8-8-12-12-12-12-12-12-12-10-10-10-8-8-10-10-8-8--| 
G|---------------------------------------------------------------------------| 
D|---------------------------------------------------------------------------| 
A|---------------------------------------------------------------------------| 
D|---------------------------------------------------------------------------| 

REPEAT INTRO 

2ND VERSE / OUTRO "We will be together in search of a new life..." 
e|---------------------------------------------------------------------------| 
B|---------------------------------------------------------------------------| 
G|-5~----------------7~------------------9~--------5~--------7~--------------| 
D|---------------------------------------------------------------------------| 
A|-3~----------------5~------------------7~--------3~--------5~--------------| 
D|------------------------------0------------------------------------0-------| 

e|---------------------------------------------------------------------------| 
B|---------------------------------------------------------------------------| 
G|-/9-9--9--9--9-9-9--9-9-9--9------------------------------9-9--9--9--9-9-9-| 
D|-/9-9--9--9--9-9-9--9-9-9--9-0-0--0-0-4--0-0-0--0-7h9p7---9-9--9--9--9-9-9-| 
A|-/7-7--7--7--7-7-7--7-7-7--7----------------------------9-7-7--7--7--7-7-7-| 
D|---------------------------------------------------------------------------| 
pm ... ... . 
e|-----------------------------------------2~--------------------------------| 
B|-----------------------------------------3~--------------------------------| 
G|-9--9-9-9-7-7--7--7--7-7-7--7---2h4p2----4~--------------------------------| 
D|-9--9-9-9-----------------------------4--2~--------------------------------| 
A|-7--7-7-7-5-5--5--5--5-5-5--5------------2~--------------------------------| 
D|-----------------------------------------2~--------------------------------| 
pm..... 





Comments


Popular Yellowcard tabs & chords
Five Becomes Four Bass Tabs
Down On My Head Chords
Breathing 2 Tabs
Firewater 2 Tabs
Miles Apart Tabs
Something Of Value 2 Tabs
View From Heaven Tabs
Hang You Up Ukulele
One Year Six Months Ukulele
Takedown Ukulele


Song lyrics



↑ Back to top | Tablatures and chords are parodies/interpretations of the original songs. You may use it for private study, scholarship, research or language learning purposes only
© 2014 AZChords.com Contact us | Privacy policy | DMCA | Add/correct tabs | Request tabs | Top 50 tabs