>
 >
Rough Draft 1

Rough Draft 1 Guitar Tabs

Yellowcard - Rough Draft 1 chords, tabs, tablatures, lyrics

Guitar lessons | Add/correct | Request | Top 50 tabs Artists:  A B C D E F G H I J K L M N O P Q R S T U V W X Y Z 0-9

Rough Draft 1 Guitar Tabs – Yellowcard

CD, Sheet music, Poster

Do you like Rough Draft 1? Share with your friends now
ChordsTabsTabs v2Tabs v3Tabs v4Ukulele
			  ROUGH DRAFT - Yellowcard


~ - let ring out
h - hammer on
p - pull off
/ - slide
* - harmonic
9x
9x - mute after strumming
7x
x
x - scratching
x

Intro:  (4x)
e|--------0------------------------------------------------0-----------------|
B|------------------------0----------------------------3-----3---3-----------|
G|----2-----2---2-------------------------2p0--------2---2-----2-------------|
D|--2---2-----2-------2-----2---2-----4----------4-0-------------------------|
A|0-----------------2---2-----2-----4---4------4-----------------------------|
E|----------------0---------------2------------------------------------------|

End of Intro:
e|-------------|
B|-------------|
G|-------------|
D|-------------|
A|-------------|
E|2~---1~------|

Interlude:  (1x)
e|-----0-------0---------|
B|-----3-------3---------|
G|-1h2-2---1---2---------|
D|-2-2-0---2---0---------|
A|-0-0-x---2-------------|
E|-----2---0-------------|

Verse:  (2x)  "So you wrote it down..."
e|----------------------------0-0-0-0-0-0-0-0-0-0-0-0------------------------|
B|----------------------------3-3-3-3-3-3-3-3-3-3-3-3------------------------|
G|2-2-x-1h2-2-x-1h2-2-x-1h2-2-2-2-2-2-2-2-2-2-2-2-2-2-1-1-1-1-1-1-1-1-1-1-1-1|
D|2-2-x-2---2-x-2---2-x-2---2-0-0-0-0-0-0-0-0-0-0-0-0-2-2-2-2-2-2-2-2-2-2-2-2|
A|0-0-x-0---0-x-0---0-x-0---0-x-x-x-x-x-x-x-x-x-x-x-x-2-2-2-2-2-2-2-2-2-2-2-2|
E|----------------------------2-2-2-2-2-2-2-2-2-2-2-2-0-0-0-0-0-0-0-0-0-0-0-0|

Verse Cont'd:
e|----0---------------0------------------------------------------------------|
B|----------3---3-----------3---3--------------------------------------------|
G|--2-----2---------2-----2--------------------------------------------------|
D|0-----0-----0---0-----0-----0----------------------------------------------|
A|---------------------------------------------------------------------------|
E|---------------------------------------------------------------------------|

Pre Chorus:  Guitar 1  "Maybe it's childish and..."
e|------------------------------------------------0-0-0-0-0-0-0-0------------|
B|------------------------------------------------3-3-3-3-3-3-3-3------------|
G|2-2-2-2-2-2-2-2-1-1-1-1-1-1-1-1-----------------2-2-2-2-2-2-2-2------------|
D|2-2-2-2-2-2-2-2-2-2-2-2-2-2-2-2-4-4-4-4-4-4-4-4-0-0-0-0-0-0-0-0------------|
A|0-0-0-0-0-0-0-0-2-2-2-2-2-2-2-2-4-4-4-4-4-4-4-4----------------------------|
E|----------------0-0-0-0-0-0-0-0-2-2-2-2-2-2-2-2----------------------------|

Pre Chorus Cont'd:  Guitar 1
e|------------------------------------------------0~-------------------------|
B|------------------------------------------------3~-------------------------|
G|2-2-2-2-2-2-2-2-1-1-1-1-1-1-1-1---------2p0-----2~-------------------------|
D|2-2-2-2-2-2-2-2-2-2-2-2-2-2-2-2-----4---------4-0~-------------------------|
A|0-0-0-0-0-0-0-0-2-2-2-2-2-2-2-2---4---4-----4------------------------------|
E|----------------0-0-0-0-0-0-0-0-2------------------------------------------|

Pre Chorus:  Guitar 2  (REPEAT INTRO)  "Maybe it's childish and..."

Chorus:  (3x)  "Don't wanna be, don't..."
e|------------------------------------------------0-0-0-0-0-0-0-0------------|
B|------------------------------------------------3-3-3-3-3-3-3-3------------|
G|2-2-2-2-2-2-2-2-1-1-1-1-1-1-1-1-----------------2-2-2-2-2-2-2-2------------|
D|2-2-2-2-2-2-2-2-2-2-2-2-2-2-2-2-4-4-4-4-4-4-4-4-0-0-0-0-0-0-0-0------------|
A|0-0-0-0-0-0-0-0-2-2-2-2-2-2-2-2-4-4-4-4-4-4-4-4----------------------------|
E|----------------0-0-0-0-0-0-0-0-2-2-2-2-2-2-2-2----------------------------|

Chorus Cont'd:  (Play on 4th time)
e|---------------------------------------------------------------------------|
B|---------------------------------------------------------------------------|
G|2-2-2-2-2-2-2-2-1-1-1-1-1-1-1-1--------------------------------------------|
D|2-2-2-2-2-2-2-2-2-2-2-2-2-2-2-2-4-4-4-4-4-4-4-4-4-4-4-4-4-4-4-4------------|
A|0-0-0-0-0-0-0-0-2-2-2-2-2-2-2-2-4-4-4-4-4-4-4-4-4-4-4-4-4-4-4-4------------|
E|----------------0-0-0-0-0-0-0-0-2-2-2-2-2-2-2-2-2-2-2-2-2-2-2-2------------|

Repeat Interlude:  1st Guitar  (1x)

2nd Interlude:  Guitar 2
e|---------------------------------------------------------------------------|
B|-------------------------------------------------------------10/12-10~-----|
G|9-9-7-6-4-2-4~-4/6-----9-7-6------4/6-------9-7-6---6--4--2---9/11--9~-----|
D|-------------------7~--------7-9~-----7~--7-------7------------------------|
A|---------------------------------------------------------------------------|
E|---------------------------------------------------------------------------|

Repeat 2nd Verse:  I'm breathing in your skin tonight
                   Quiet is my loudest cry
                   Wouldn't want to wake the eyes
                   That make me melt inside
                   And if it's healthier to leave you be
                   May a sickness come and set me free
                   Kill me while I still believe
                   That you were meant for me

Bridge:  (4x) (The really good backing vocals!)
e|---------------------------------------------------------------------------|
B|---------------------------------------------------------------------------|
G|----------------6-6-6-6-6-6-6-6-7-7-7-7-7-7-7-7-9-9-9-9-9-9-9-9------------|
D|7-7-7-7-7-7-7-7-7-7-7-7-7-7-7-7-7-7-7-7-7-7-7-7-9-9-9-9-9-9-9-9------------|
A|7-7-7-7-7-7-7-7-4-4-4-4-4-4-4-4-5-5-5-5-5-5-5-5-7-7-7-7-7-7-7-7------------|
E|5-5-5-5-5-5-5-5------------------------------------------------------------|

Next Part:
e|---------------------------------------------------------------------------|
B|---------------------------------------------------------------------------|
G|------------6-------------------------7------------------9-----------------|
D|7-----------7-------------------------7------------------9-----------------|
A|7-----------4-------------------------5------------------7-----------------|
E|5--------------------------------------------------------------------------|
   Biting my own words, my own little stage, my own epic drama, my own

Next Part Cont'd:
e|---------------------------------------------------------------------------|
B|---------------------------------------------------------------------------|
G|------------------------------6-------------------------------7------------|
D|---------7--------------------7-------------------------------7------------|
A|---------7--------------------4-------------------------------5------------|
E|---------5-----------------------------------------------------------------|
  scripted page, send you the rough draft, I'll seal it with tears, maybe

Next Part Cont'd:
e|---------------------------------------------------------------------------|
B|---------------------------------------------------------------------------|
G|----------9--9x---------------------------------------------6--------------|
D|----------9--9x------------------7--------------------------7--------------|
A|----------7--7x------------------7--------------------------4--------------|
E|---------------------------------5-----------------------------------------|
  you'll read it and I'll reappear.  From the start it was shaky and the

Next Part Cont'd:
e|---------------------------------------------------------------------------|
B|---------------------------------------------------------------------------|
G|-------------7----------------------------9--------------------------------|
D|-------------7----------------------------9------------------------7-------|
A|-------------5----------------------------7------------------------7-------|
E|-------------------------------------------------------------------5-------|
  characters rash, a nice setting for heartache where emotions come last, all

Next Part Cont'd:
e|---------------------------------------------------------------------------|
B|---------------------------------------------------------------------------|
G|-----------------6-------------------------7-------------------9-----------|
D|-----------------7-------------------------7-------------------9-----------|
A|-----------------4-------------------------5-------------------7-----------|
E|---------------------------------------------------------------------------|
  I have deep inside is to overcome this desire, of friendly intentions and

Next Part Cont'd:
e|---------------------------------------------------------------------------|
B|-----------------------6---------------------------------------------------|
G|-------------7---------7---------------------------------------------------|
D|-------------7---------7---------------------------------------------------|
A|-------------5---------5---------------------------------------------------|
E|---------------------------------------------------------------------------|
  fairweather smiiiiiiiiiiiles.

Repeat Chorus:  (8x)

Chorus:  Guitar 2  (Repeats Intro for the last 4 bars)

Ending:
e|---------------------------------------------------------------------------|
B|--10~---10~---2~-----------------------------------------------------------|
G|--11~---10~---2~----6/7-6-2---------*--------------------------------------|
D|--11~---11~---2~------------2-0-----7-*------------------------------------|
A|---9~----8~---0~----------------4-5---5------------------------------------|
E|---------------------------------------------------------------------------|

I think that's everything.  I might have forgotten some 2nd guitar parts or
messed up a little bit but it's really hard to hear.
                          YELLOWCARD ROCKS!





Comments


Popular Yellowcard tabs & chords
Empty Apartment 4 Bass Tabs
Back Home 2 Chords
Life Of Leaving Home Chords
Empty Apartment 5 Tabs
Finish Line Tabs
For Petes Sake (Solo) Tabs
Light Up The Sky 4 Tabs
Me First Tabs
Date Line Ukulele
Way Away 2 Ukulele


Song lyrics



↑ Back to top | Tablatures and chords are parodies/interpretations of the original songs. You may use it for private study, scholarship, research or language learning purposes only
© 2014 AZChords.com Contact us | Privacy policy | DMCA | Add/correct tabs | Request tabs | Top 50 tabs