>
 >
Rough Draft 2

Rough Draft 2 Guitar Tabs

Yellowcard - Rough Draft 2 chords, tabs, tablatures, lyrics

Guitar lessons | Add/correct | Request | Top 50 tabs Artists:  A B C D E F G H I J K L M N O P Q R S T U V W X Y Z 0-9

Rough Draft 2 Guitar Tabs – Yellowcard

CD, Sheet music, Poster

Do you like Rough Draft 2? Share with your friends now
ChordsTabsTabs v2Tabs v3Tabs v4Ukulele
Gtr.1 - Dropped D (D A D G B e)
Gtr.2 - Dropped D (D A D G B e)
Gtr.3 - Dropped D (D A D G B e)(Violin)
Gtr.4 - Dropped D (D A D G B e)(solo)

Intro/Verse (P.M. all)(figure out how long to play)
Gtrs. 1 and 2
e|---|------------------------|------------|
B|---|------------------------|------------|
G|---|------------------------|--dont P.M--|
D|---|------------------------|----this----|
A|---|------------------------|-0-0x--0-0x-|
D|-7>|7>-4>-2>-0>-7>-4>-2>-0>-|-0-0x--0-0x-|

PreChorus ("Maybe it's childish...")
Gtr.1
e|----------------|----------------|-----------------------|-----------------|
B|----------------|---------9------|------------10---------|---------7-------|
G|---------9------|-----9-----9---9|------11-------11----11|-----7-----7---7-|
D|-----7-----7---7|---9---9-----9--|---11----11-------11---|---7---7-----7---|
A|---7---7-----7--|-7--------------|-9---------------------|-5---------------|
D|-7--------------|----------------|-----------------------|-----------------|
Gtr.3(plays with Gtr.1)(figure out timing)
e|---|--------|----------------|---------------|--------------|--------|-------|
B|---|--------|----------------|---------------|--------------|--------|-------|
G|---|--------|----------------|---------------|--------------|--------|-------|
D|-7~|--7-7-9~|--9-11p9-7p9-11~|---11-9h11-12~-|--12-14-12-11~|--11-9~-|-7h9p7~|
A|---|--------|----------------|---------------|--------------|--------|-------|
D|---|--------|----------------|---------------|--------------|--------|-------|
cont'd
e|------------------------|
B|------------------------|
G|------------------------|
D|-7-7-11-9-11-7-9h11-9p7-|
A|------------------------|
D|------------------------|
Gtr.2 (figure out timing)
e|-------------------------------------------------------------------------|
B|---------------------------P.M from here on------------------------------|
G|-------.------------.---------------------------- just play this faster--|
D|-7~----7-2~----4~---4-0~---4-4-4-4-4-4-4-4-0-0-0-0-0-0-0-0-0-0-0-0-0-0-0-|
A|-7~----7-2~----4~---4-0~---4-4-4-4-4-4-4-4-0-0-0-0-0-0-0-0-0-0-0-0-0-0-0-|
D|-7~----7-2~----4~---4-0~---4-4-4-4-4-4-4-4-0-0-0-0-0-0-0-0-0-0-0-0-0-0-0-|

Chorus("Dont wanna be...")
Gtr.1
e|----------------|-----------------------|-----------------------|
B|----------------|-----------------------|-----------------------|
G|-6-6-6-6-6-6-6x-|-13-13-13-13-13-13-13x-|-14-14-14-14-14-14-14x-|
D|-x-x-x-x-x-x-x--|--x--x--x--x--x--x--x--|--x--x--x--x--x--x--x--|
A|-4-4-4-4-4-4-4x-|-11-11-11-11-11-11-11x-|-12-12-12-12-12-12-12x-|
D|----------------|-----------------------|-----------------------|
cont'd 
e|-----------------------|----------------|----------------|----------------|
B|-----------------------|----------------|----------------|----------------|
G|-11-11-11-11-11-11-11x-|-6-6-6-6-6-6-6x-|-4-4-4-4-4-4-4x-|-6-6-6-6-6-6-6x-|
D|--x--x--x--x--x--x--x--|-x-x-x-x-x-x-x--|-x-x-x-x-x-x-x--|-x-x-x-x-x-x-x--|
A|--9--9--9--9--9--9--9x-|-4-4-4-4-4-4-4x-|-2-2-2-2-2-2-2x-|-4-4-4-4-4-4-4x-|
D|-----------------------|----------------|----------------|----------------|
cont'd
e|----------------|
B|----------------|
G|----------------|
D|-7-7-7-7-7-7-7x-|
A|-x-x-x-x-x-x-x--|
D|-7-7-7-7-7-7-7x-|
Gtr.2(figure out timing)
e|----------|----------|----------|----------|
B|----------|----------|----------|----------|
G|----------|----------|----------|----------|
D|-7-7-7-7x-|-2-2-2-2x-|-4-4-4-4x-|-0-0-0-0x-|
A|-7-7-7-7x-|-2-2-2-2x-|-4-4-4-4x-|-0-0-0-0x-|
D|-7-7-7-7x-|-2-2-2-2x-|-4-4-4-4x-|-0-0-0-0x-|

Verse 2(P.M. E string 1st time..don't 2nd time)
Gtr.1
e|-----------------------------------------------------------------|
B|-----------------------------------------------------------------|
G|-----------------------------------------------------------------|
D|-----------------------------------------------------------------|
A|-----4h7-----4h7-----4h7-----4h7-----2h4-----2h4-----2h4-----2h4-|
D|-7-7-----7-7-----7-7-----7-7-----4-4-----4-4-----4-4-----4-4-----|
cont'd
e|---------------------------------|---------|---------------------------------|
B|---------------------------------|---------|--play this 2nd time-------------|
G|---------------------------------|-don't---|---------------------------------|
D|---------------------------------|---P.M---|---------------------------------|
A|-----0h2-----0h2-----0h2-----0h2-|0-0x-0-0x|----2h4-----2h4-----2h4-----2h4--|
D|-2-2-----2-2-----2-2-----2-2-----|0-0x-0-0x|0-0-----0-0-----0-0-----0-0------|
Gtr.2(plays second time Gtr.1 plays)
e|-------------|
B|-------------|
G|-------------|
D|-------------|
A|-------------|
D|-7>-4>-2>-0>-|

Play Prechorus

Play Chorus

Break Part("writing my own words...")
Gtr.1 (figure out strumming pattern)
e|-5-|--0-|
B|-5-|--x-|
G|-6-|--2-|
D|-7-|--2-|
A|---|--0-|
D|---|----|
Gtr.2(figure out strumming pattern)
e|----|------|
B|----|------|
G|-9--|------|
D|-x--|--9-9-|
A|-7--|--9-9-|
D|----|--9-9-|

Solo
Gtrs.1 and 2(play while solo plays)
e|---|---|---|1st|2nd|
B|---|---|---|---|---|
G|---|-6>|-7>|-9>|-9>|
D|-7>|-7>|-7>|-9>|-9>|
A|-7>|-4>|-5>|-7>|-7>|
D|-7>|---|---|---|-PM|
Gtr.4(timing)
e|---------------------------------|--------------|------------------------|
B|---------------------------------|--------------|---------12----12----12-|
G|-14-13----11---------------------|-----------14-|---12-14----14----14----|
D|-------14----14-12--12h14p12-11~-|--11-12-14----|------------------------|
A|---------------------------------|--------------|------------------------|
D|---------------------------------|--------------|------------------------|
Gtr.3(timing)
e|---------------------------------|-------------|---------------------------|
B|-17--14--15--14--12-12h14p12-10~-|----------14-|--12-14-15-14--12-14-15-14-|
G|---------------------------------|-------14----|---------------------------|
D|---------------------------------|-11-12-------|---------------------------|
A|---------------------------------|-------------|---------------------------|
D|---------------------------------|-------------|---------------------------|
cont'd
e|--------------------------|---------|
B|--------------------------|---------|
G|-------14-------14----14--|---------|
D|-14h16----14h16----14-----|(14tr16)-|
A|--------------------------|---------|
D|--------------------------|---------|
Gtr.3
e|-----------------------|-----------------17~-|
B|-15-17--14-15-17--14-15|-(14tr15)--15h17-----|
G|-----------------------|---------------------|
D|-----------------------|---------------------|
A|-----------------------|---------------------|
D|-----------------------|---------------------|

Play Chorus(more)

Gtrs.3 and 4 come in with the solo(Gtrs. 1 and 2 keep playing)

Fading end





Comments


Popular Yellowcard tabs & chords
Believe 2 Bass Tabs
How I Go 1 Chords
How I Go 2 Chords
Rough Landing Holly Chords
Something Of Value Chords
Down On My Head Tabs
Firewater 1 Tabs
October Nights 2 Tabs
Shrink The World Tabs
Sleep In The Snow 1 Tabs


Song lyrics



↑ Back to top | Tablatures and chords are parodies/interpretations of the original songs. You may use it for private study, scholarship, research or language learning purposes only
© 2014 AZChords.com Contact us | Privacy policy | DMCA | Add/correct tabs | Request tabs | Top 50 tabs