» » »

Yellowcard, Powder Tabs (ver.2)

Artists:  A B C D E F G H I J K L M N O P Q R S T U V W X Y Z # 

Powder Tabs (ver.2)

Yellowcard Tabs
 Rating:
4/5 (4 votes)
Powder lessons Tabs too difficult? Try these video lessons and learn fast
                This is my first tab.. but I think I did pretty well.. The person who first tabbed this song didn't do so
great... I also added the violin part at the end if you play that too. 

Intro/Verse:  


e   |----------------------------------------------|>
B   |----------------------------------------------|   >
G   |--------------------2-2--2--------------------|     >
D   |-5-5--5--3-3-3---3--2-2--2--1--1--1---1-------|       >  Repeat 5x
A   |-5-5--5--3-3-3---3--0-0--0--1--1--1---1-------|  >
D   |-5-5--5--3-3-3---3--x-x--x--1--1--1---1-------|>
                pm-----------------------------------

e   |-----------------------------------------------|
B   |-----------------------------------------------|
G   |--------------------2-2--2---------------------|
D   |-5-5--5--3-3-3---3--2-2--2--1-1-1-1-1-1-1------|
A   |-5-5--5--3-3-3---3--0-0--0--1-1-1-1-1-1-1------|
D   |-5-5--5--3-3-3---3--x-x--x--1-1-1-1-1-1-1------|
      ------pm----------------------

Pre-Chorus---Listen for Strumming

e   |-----------------------------------------------|
B   |-----------------------------------------------|
G   |-3-3-3-3---------------------------------------|
D   |-3-3-3-3--3-3-3-3--1-1-1--3-3-3----------------|
A   |-1-1-1-1--3-3-3-3--1-1-1--3-3-3----------------|
D   |-x-x-x-x--3-3-3-3--1-1-1--3-3-3----------------|
      ----------------pm-------------------------------

Chorus

e   |-----------------------------------------------|
B   |-----------------------------------------------|
G   |-3-3-3-3---------------------------------------|
D   |-3-3-3-3--3-3-3-3--1-1-1--3-3-3----------------|
A   |-1-1-1-1--3-3-3-3--1-1-1--3-3-3----------------|
D   |-x-x-x-x--3-3-3-3--1-1-1--3-3-3----------------|

Solo

e   |----------------------------------------------------------------|
B   |----------------------------------------------------------------|
G   |----------------------------------------------------------------|
D   |---------88------------77------------1010-----1-1-1-1-----------|
A   |-----55-----55------88-----88-----88-------88-1-1-1-1-----------|
D   |-55--------------77-----------77--------------1-1-1-1-----------|

Chorus 2x

Bridge:  Too lazy to do it...if you know it then tell me.. its the same chords as the verse, but 
each note plucked similar to solo.. Also its too hard to hear it.

You can figure out the order your self by listening to the song..its not difficult.

violin

Intro:
Violin 1
 e | ----------------------------------------------|
 a |---D--C#--A--A-Bb---C#--D--A--A-Bb-------------|
 d |-----------------------------------------------|
 g |-----------------------------------------------|

Violin 2
 e | ----------------------------------------------|
 a |---Bb--A--F#--F#-G--A--Bb--A--F#-F#--G----------|
 d |-----------------------------------------------|
 g |-----------------------------------------------|

During Verse: Solo

 e | ------------------------------------------------------------------
 a |-----------BbBb--------------- DD-------------------C#C#----------
 d |------DD--------DD------F#F#-------F#F#-------F#F#----------F#F#--
 g |-GG------------------AA-----------------AA------------------------

 e | ----------------------------------------------------------------
 a |--BbBb------BbBb----------------Bb--C#--Bb--A-----D-Eb-D--
 d |---------DD---------DD------DD------------------F#------------
 g |------------------------GG--------------------------------------

 e | -------------------------------------------------------------------|
 a |-C#------------C#-D-C#-Bb--------------Bb-C#-D-C#-D--------------|
 d |---------F#F#----------------------F#F#--------------------------|
 g |-----AA-----------------------AA---------------------------------|

Pre Chorus/Solo:

 e |--------------------------------------------------------------------|
 a |-------------------------A-Bb-A-Bb-C#-D-C#-D-Eb-D-------------------|
 d |-Eb-D-Eb-F#-G-F#-G---------------------------------------------------|
 g |---------------------------------------------------------------------|

Chorus/Solo:
 e | --------------------------------------------------------|
 a |-D-Eb--D--Bb---------------------------------------------|
 d |-----------------F#--------------------------------------|
 g |---------------------------------------------------------|

Repeat Intro

Bridge:
 e | -------------------------------------------------------|
 a |-----Bb-----D-----Bb------D------Bb---------------------|
 d |-DD------DD---DD-----DD------DD------D------------------|
 g |--------------------------------------------------------|

 e | -----------------------------F#F#--A-F#--------------|
 a |---------AA--DD--AA-DD----------------------C#-A------|
 d |--F#F#------------------------------------------------|
 g |------------------------------------------------------|

 e | ---------G-------------G-------------------A-----------|
 a |-----Bb-----Bb----Bb-----Bb----------C#--------C#------ |
 d |--G-------------G--------------G--F#----------------F#--|
 g |--------------------------------------------------------|

 e | ---------A---------------Bb---------------Bb----------|
 a |------C#----C#------Bb--------Bb------Bb-------Bb----- |
 d |--F#-------------Eb--------------Eb----------------Eb--|
 g |----------------------------------------------------------|

 e | ------------A--------------A---------------------------|
 a |-------C#-----C#--------C#-----C#---------------------- |
 d |---F#--------------F#-------------F#--------------------|
 g |----------------------------------------------------------|

Eh...thats all for now..rest it easy..
            
Submit corrections

comments powered by Disqus
↑ Back to top | Yellowcard Tabs for Powder. Lyrics for acoustic guitar and electric guitar. Tablatures and chords are parodies/interpretations of the original songs. You may use it for private study, scholarship, research or language learning purposes only