» » »

Powder Tabs (ver.3)

Artists:  A B C D E F G H I J K L M N O P Q R S T U V W X Y Z # 

Powder Tabs (ver.3)

Yellowcard
Rating:
0/5 (0 votes)

Hard to play? Try these video lessons and learn fast.
                Yellowcard - Powder

Part 1:
e|------------------------------
B|------------------------------
G|------------------------------
D|-5-5-53-3-3----3-3-35555------ (6x)
A|-5-5-53-3-3----3-3-35555------
E|-3-3-31-1-1----1-1-13333------
  {------Palm Muted---------}

Bridge:
e|--------
B|--------
G|--------
D|--55-5--
A|--55-5--(follow along i don't feel like counting)
E|--33-3--
   {PM}

chorus 1
e|--------------------
B|--------------------
G|--------------------
D|-5------3-----------
A|-5(10x)-3-(10X)-----
E|-3------1-----------

part 1 twice

solish part ?????

Bridge

Chorus 1 twice

Chorus 2:
e|--------------------
B|--------------------
G|--------------------
D|-7-------5----------
A|-7-(10x)-5-(10x)----
E|-5-------3----------

verse 3:
e|---------------------------
B|---------------------------
G|---------------------------
D|-7-7-75-5-5----5-5-57777---
A|-7-7-75-5-5----5-5-57777---
E|-5-5-53-3-3----3-3-35555---

Chorus 1
Chorus 2

END:
e|-----------------------------------
B|-----------------------------------
G|-----------------------------------
D|-5--------------------------7--7---
A|-5--------------------------7--7---
E|-3--------------------------5--5---
  {--palm muted many times--}{PM}

This is by no way completly correct (or even that entirly close), but it will get you started and when you figure out more add to the site the corrections. (I'm just hoping to start at least some discussion on it because I couldn't find the tab anywhere so I'm putting this out to aid in my search to get it correct)
            
Hard to play? Try these video lessons and learn fast. | Correct




comments powered by Disqus
↑ Back to top | Tablatures and chords are parodies/interpretations of the original songs. You may use it for private study, scholarship, research or language learning purposes only