>
 >
How I Go

How I Go Chords

Yellowcard - How I Go chords, tabs, tablatures, lyrics

Guitar lessons | Add/correct | Request | Top 50 tabs Artists:  A B C D E F G H I J K L M N O P Q R S T U V W X Y Z 0-9

How I Go Chords – Yellowcard

CD, Sheet music, Poster

Do you like How I Go? Share with your friends now
Bass TabsChordsChords v2Chords v3TabsTabs v2Tabs v3Ukulele
Yellowcard
How I Go feat. Natalie Of Dixie Chicks
Lights And Sounds
2006 Capitol Records


Key: E

Tuning: Standard EADGBe

Chords used:
E/F# - 099900
E2 -   076900
EM7 -  079800
A8 -   007900
E -    022100
E5 -   079900
A9 -   x02200
B9 -   x24400
C#9 -  x46600
A/F# - 2x2200
F#m7 - x97900
B/D# - x69800
C#m -  x46654
B -    x24442
A -    x02220
E/C# - 9x9900
E/B -  7x9900


Intro:

Acoustic: E/F#-E2-EM7-A8 (x2)
then
e|---0----0----0----0-|
B|---0----0----0----0-|
G|-4----2----1----2---|
D|----------------4---|
A|--------------------|
E|--------------------|

Piano:                                      Very fast here
e|----12----------------------------|--14-12----14-12----14-12----14-16-17-|
B|-12-----12-10--9-12--10-9---------|--------12-------12-------12----------|
G|--------------------------11-9--8-|--------------------------------------|
D|----------------------------------|--------------------------------------|
A|----------------------------------|--------------------------------------|
E|----------------------------------|--------------------------------------|
then
e|-16-------16-------16-------16-17-19--17-16-17-16----12--14--16------12--|
B|----17-------17-------17--------------------------12-------------12------|
G|-------16-------16-------16----------------------------------------------|
D|-------------------------------------------------------------------------|
A|-------------------------------------------------------------------------|
E|-------------------------------------------------------------------------|


Verse 1:
E5                   F#m7
I could tell you the wildest of tales
B/D#                    E5
My friend the giant and travelling sales
E5               F#m7
Tell you all the times that I failed
    B/D#                    E5
The years all behind me The stories excelled
    E          A/F#       A9
And I'm drying out Crying out
     A(hold)
This isn't how I go

then
e|---0----0----0----0-|
B|---0----0----0----0-|
G|-4----2----1----2---|
D|----------------4---|
A|--------------------|
E|--------------------|


Verse 2:
E5                    F#m7
I could tell you of a man not so tall
    B/D#                     E5
Who said life's a circus and so we are small
E5            F#m7
Tell you of a girl that I saw
  B/D#                    E5
I froze in the moment and she changed it all
C#9            E          B9
And I'm drying out Crying out
     A9          C#9
This isn't how I go
       E         B9
Hurry now Lay me down
A9                   B9     C#9   A9    E
And let these waters flow...ohhh..oohh..ooooh
B9     C#9   A/F#  A9
Flow...ohhh..oohh..ooooh


Chorus 1:
C#m          B              A                    E
Son I am not everything you thought that I would be
    A/F#        C#m            A         B
But every story I have told is part of me


Interlude:

Acoustic: While Natalie sings "Whoooa"
E/F#-EM7-E/C#-E/B (x2) E/C#---A8-E/B (x2)

then
e|---0----0----0----0-|
B|---0----0----0----0-|
G|-4----2----1----2---|
D|----------------4---|
A|--------------------|
E|--------------------|


Violin:
e|-12-11--9----12--------|-12-11-12-14-12----12-11------|
B|----------12-----12-10-|----------------12-------9-12-|
G|-----------------------|------------------------------|
D|-----------------------|------------------------------|
A|-----------------------|------------------------------|
E|-----------------------|------------------------------|
            x2                         x2


Verse 3:
E5               F#m7
And you keep the air in my lungs
B/D#                E5
Floating along as a melody comes
       E5               F#m7
And my heart beats like timpani drums
B/D#                     E5
Keeping the time while a symphony strums
C#9            E          B9
And I'm drying out Crying out
A9               C#9
This isn't how I go
      E          B9
Hurry now Lay me down
    A9               B9     C#9   A9    E
And let these waters flow...ohhh..oohh..ooooh
B9     C#9   A/F#  A9
Flow...ohhh..oohh..ooooh
       B9    C#9    A9    E
Let it flow...ohhh..oohh..ooooh
       B9     C#9   A9    E
Let it flow...ohhh..oohh..ooooh


Acoustic: E-A9-E-B9

Violin:
e|-0----0-2--0-2-4-0-5-4-5-7-5-7-12-11-7-|
B|----4----------------------------------|
G|---------------------------------------|
D|---------------------------------------|
A|---------------------------------------|
E|---------------------------------------|


Chorus 2:
C#m          B              A                    E
Son I am not everything you thought that I would be
    A/F#        C#m            A         B
But every story I have told is part of me
C#m             B                A               E
Son I leave you now but you have so much more to do
    A/F#        C#m            A          B
And every story I have told is part of you


Outro:
e|---0----0----0----0---0-|
B|---0----0----0----0---0-|
G|-4----2----1----2-----1-|
D|----------------4-----2-|
A|----------------------2-|
E|----------------------0-|





Comments


Popular Yellowcard tabs & chords
View From Heaven Bass Tabs
Shadows And Regrets 2 Chords
Sing For Me Chords
Empty Apartment Drum Tabs
Cigarette 2 Tabs
Don't You Forget About Me Tabs
Fighting Intro Tabs
On The Brink Intro Tabs
Believe Ukulele
You And Me And One Spotlight Ukulele


Song lyrics



↑ Back to top | Tablatures and chords are parodies/interpretations of the original songs. You may use it for private study, scholarship, research or language learning purposes only
© 2014 AZChords.com Contact us | Privacy policy | DMCA | Add/correct tabs | Request tabs | Top 50 tabs