» » »

How I Go Tabs (ver.2)

Artists:  A B C D E F G H I J K L M N O P Q R S T U V W X Y Z # 

How I Go Tabs (ver.2)

Yellowcard
Rating:
0/5 (0 votes)

Hard to play? Try these video lessons and learn fast.
                -------------------------------------------------------------------------------
                             HOW I GO - Yellowcard
-------------------------------------------------------------------------------

Tuning: Standard

This tab is NOT 100% the same as the album version. I believe the D string 
is muted when the bass note is on the A string, but I love the sound of the 
chords I have here. If you want to sound like the album, mute the D string.

Chords used:
     
e|--0-----0-----0-----0-----0-----0-----0-----0-----0-----0-----0--|
B|--0-----0-----0-----0-----0-----0-----0-----0-----0-----0-----0--|
G|--9-----9-----9-----9-----9-----9-----9-----6-----4-----2-----1--|
D|--7-----6-----9-----7-----7-----6-----9-----6-----4-----2-----2--|
A|--9-----------------------6-----7-----7-----4-----2-----0-----2--|
E|--------------------------------------------------------------0--|

**Strumming pattern is NOT shown. Listen to the song to figure it out.**

Intro: 
(part 1)                    (part 2) 
e|--0----0----0----0------|----0----0-----0------0--|
B|--0----0----0----0------|----0----0-----0------0--|
G|--9----9----9----9---x2-|----9----9-----9----6----|
D|--7----6~---9~---7~-----|--9----7-----6------9----|
A|--9~--------------------|-------------------------|
E|------------------------|-------------------------|


Verse:
e|--0----0----0----0-0--|
B|--0----0----0----0-0--|
G|--9----9----9----9-9--| x2
D|--6----7----7----7-6--|
A|--7~---9~---6~---6h7~-|
E|----------------------|

Chorus 1:
e|--0---0---0---0---------------------------|
B|--0---0---0---0---------------------------|
G|--6---9---4---2---repeat part 2 of intro--|
D|--6---9---4---2---------------------------|
A|--4---7---2---0---------------------------|
E|------------------------------------------|


Chorus 2:                               ("Flow...")
e|--0---0---0---0---0---0---0---0---0---|--0---0---0---0-----|
B|--0---0---0---0---0---0---0---0---0---|--0---0---0---0-----|
G|--6---9---4---2---1---6---9---4---2---|--4---6---2---1--x2-|
D|--6---9---4---2---2---6---9---4---2---|--4---6---2---2-----|
A|--4---7---2---0---2---4---7---2---0---|--2---4---0---2-----|
E|------------------0-------------------|--------------0-----| 


Bridge: ("Son I am...")

e|--0---0---0---0------|
B|--0---0---0---0------|
G|--6---4---2---1---x2-|
D|--6---4---2---2------|
A|--4---2---0---2------|
E|--------------0------|


End with Intro part 2.



| /  slide up
| \  slide down
| h  hammer-on
| p  pull-off
| ~  vibrato
| +  harmonic
| x  Mute note
===============================================================================
            
Hard to play? Try these video lessons and learn fast. | Correct




comments powered by Disqus
↑ Back to top | Tablatures and chords are parodies/interpretations of the original songs. You may use it for private study, scholarship, research or language learning purposes only