» » »

Bombers Tabs (ver.1)

Artists:  A B C D E F G H I J K L M N O P Q R S T U V W X Y Z # 

Bombers Tabs (ver.1)

Yellowcard
Rating:
5/5 (3 votes)

Hard to play? Try these video lessons and learn fast.
                (Intro)
Hey, it's Jae. This is a song by Yellowcard called Bombers.
The violin bit is playing in a cleanish distorted mode and the guitars are
played distorded. I am pretty sure this is all correct.

Tuning: Natural:(EADGBE)

Intro (violin):
|-15------------------15------------------------------|
|----15-13--17-15-13-----15-13--17-15-13--18-17-15-13-|
|-----------------------------------------------------| played 3 times
|-----------------------------------------------------|
|-----------------------------------------------------|
|-----------------------------------------------------|

Intro (violin (continued)):
|-20-19-------------------------------|
|-------20-17-20-18-17----18-17-------|
|----------------------17-------19-17-| played only once
|-------------------------------------|
|-------------------------------------|
|-------------------------------------|

Intro (violin (continued)):
|-------------------------------------17----------|
|-20-18-17-20-18-17-20-18-17-20-18-17----20-18-17-|
|-------------------------------------------------| played 3 times
|-------------------------------------------------|
|-------------------------------------------------|
|-------------------------------------------------|

Intro (violin (continued)):
|-20-19----------------------------|
|-------20-17-20-18-17----18-17----|
|----------------------17-------17-| played only once
|----------------------------------|
|----------------------------------|
|----------------------------------|

Intro (guitar 1): comes in on the 3rd bar
|---------------------------------------------------------------------|
|---------------------------------------------------------------------|
|-5555555555555555----------------------------------------------------| x 2
|-5555555555555555-2222222222222222-7777777777777777-3333333333333333-|
|-3333333333333333-2222222222222222-7777777777777777-3333333333333333-|
|------------------0000000000000000-5555555555555555-1111111111111111-|

Intro (guitar 2):comes in after 1 time of guitar 1's intro
|-------------------------------------------------------|
|-------------------------------------------------------|
|-5/12~-5/12~--12-10-10-9-5--12---12--12-10-10--9-7-555-|played only once.
|-x--x--x--x----x--x--x-x-x---x----x---x--x--x--x-x-xxx-|
|-3/10~-3/10~--10--8--8-7-3--10---10--10--8--8--7-5-333-|
|-------------------------------------------------------|
            
Hard to play? Try these video lessons and learn fast. | Correct




comments powered by Disqus
↑ Back to top | Tablatures and chords are parodies/interpretations of the original songs. You may use it for private study, scholarship, research or language learning purposes only