» » »

Bombers Tabs (ver.2)

Artists:  A B C D E F G H I J K L M N O P Q R S T U V W X Y Z # 

Bombers Tabs (ver.2)

Yellowcard
Rating:
4/5 (2 votes)

Hard to play? Try these video lessons and learn fast.
                Band:  Yellowcard
Tuning:  Standard

Okay, so this is an awesome B-side by yellowcard!  If you stumbled apon this by 

Yeah, pretty good right?  Anyways so here's what I can make from this song.  Please rate 
comment.

And I'm not going to bother with telling you when or not you palm mute, you're all grown 
now, you can tell from listening to it.
Key:
/ or \ = slide up or down
x = dead note (chickas)


Intro:

Gtr. 1:  (after violin)
|---------------------------------------------------------------------|
|---------------------------------------------------------------------|
|-5555555555555555----------------------------------------------------|
|-5555555555555555-3333333333333333-7777777777777777-3333333333333333-| x2
|-3333333333333333-2222222222222222-7777777777777777-3333333333333333-|
|-3333333333333333-0000000000000000-5555555555555555-1111111111111111-|

Gtr. 2:  (on gtr. 1's 2nd time)
|---------------------------------------------------------------------------------------|
|---------------------------------------------------------------------------------------|
|-55555555/1212121212121212\55555555/1212121212121212-12-121010-9-5---/12-121010-9-7----|
|-xxxxxxxx/-x-x-x-x-x-x-x-x\xxxxxxxx/-x-x-x-x-x-x-x-x--x--x-x-x-x-x---/-x--x-x-x-x-x----|
|-33333333/1010101010101010\33333333/1010101010101010-10-10-8-8-7-3---/10-10-8-8-7-5----|
|---------------------------------------------------------------------------------------|


Verse 1:

Gtr. 1:
|---------------------------------------------------------------------|
|---------------------------------------------------------------------|
|---------------------------------------------------------------------|
|----------------------------------------------------3333333333333333-|
|-0000000000000000-3333333333333333-0000000000000000------------------|
|---------------------------------------------------------------------|

|----------------------------------------------------------------------------|
|----------------------------------------------------------------------------|
|----------------------------------------------------121212-999-777-999-5555-|
|-----------------------------------------------------x-x-x-xxx-xxx-xxx-xxxx-|
|-0000000000000000-3333333333333333-0000000000000000-101010-777-555-777-3333-|
|----------------------------------------------------------------------------|

Gtr. 2:
|---------------------------------------------------------------------|
|---------------------------------------------------------------------|
|---------------------------------------------------------------------|
|---------------------------------------------------------------------|
|-3333333333333333-7777777755555555-3333333333333333-7777777755555555-|
|---------------------------------------------------------------------|

|----------------------------------------------------------------xxxx-|
|----------------------------------------------------------------xxxx-|
|----------------------------------------------------------------xxxx-|
|--------------------------5555----------------------------------xxxx-|
|-3333333333333333-77777777----5555-3333333333333333-------------xxxx-|
|----------------------------------------------------------------xxxx-|


Chorus:

Gtr. 1:
|---------------------------------------------------------------------|
|---------------------------------------------------------------------|
|-5555555555555555----------------------------------------------------|
|-5555555555555555-3333333333333333-7777777777777777-3333333333333333-|x2
|-3333333333333333-3333333333333333-7777777777777777-3333333333333333-|
|------------------1111111111111111-5555555555555555-1111111111111111-|

Gtr. 2:
|-------------------------------------------------------------------------------------|
|-------------------------------------------------------------------------------------|
|-5555555555555555-5555555555555555-------------9999-12121212121212121212121212121212-|
|-xxxxxxxxxxxxxxxx-xxxxxxxxxxxxxxxx-777799997777xxxx--x-x-x-x-x-x-x-x-x-x-x-x-x-x-x-x-|x2
|-3333333333333333-3333333333333333-xxxxxxxxxxxx7777-10101010101010101010101010101010-|
|-----------------------------------555577775555--------------------------------------|


Verse 2:

Gtr. 1:
|---------------------------------------------------------------------|
|---------------------------------------------------------------------|
|---------------------------------------------------------------------|
|------------------------------------------------------------33333333-|
|-0000000000000000-3333333333333333-0000000000000000---------xxxxxxxx-|
|----------------------------------------------------1111111111111111-|

|-----------------------------------------------------------------|
|-----------------------------------------------------------------|
|---------------------------------------5-------5-----5---5-------|
|-------5-------5-------5-------5---------------------------------| x2
|-0-3-5---0-3-5---0-3-5---0-3-5---3-5-7---3-5-7---3-5---5---7-5-3-|
|-----------------------------------------------------------------|

|-------------------------|
|-------------------------|
|-121212-999-777-999-5555-|
|--x-x-x-xxx-xxx-xxx-xxxx-|
|-101010-777-555-777-3333-|
|-------------------------|

Gtr. 2:
|-----------------------------------------------------------------------|
|-----------------------------------------------------------------------|
|-----------------------------------------------------------------------|
|-----------------------------------------------------------------------|
|-3333333333333333-7777777755555555-3333333333333333-777777777-55555555-|
|-----------------------------------------------------------------------|

|----------------------------------------------------------------------------------xxxx-|
|----------------------------------------------------------------------------------xxxx-|
|----------------------------------------------------------------------------------xxxx-|
|----------------------------------------------------------------------------------xxxx-|
|------------------3333333333333---------------------------------------------------xxxx-|
|-5555555555555333--------------333-55555555555555333-1111111111111111-------------xxxx-|

REPEAT CHORUS

Bridge:
Gtr. 1:
|----------------|
|----------------|
|-5--------------|
|-5--------------|
|-3--------------|
|----------------|

Gtr. 2:  (with some effects throughout entire bridge)
|-1-1-1-1-3-3-3-3-1-1-1-1---------|
|-------------------------1-1-1-1-|
|---------------------------------|
|---------------------------------|
|---------------------------------|
|---------------------------------|

Gtr. 3:  (with some effects throughout most of bridge)
|-0--0--0--0--0--0--0--0--|
|--1--1--1--1--1--1--1--1-|
|-------------------------|
|-------------------------|
|-------------------------|
|-------------------------|

Gtr. 1:
|---------------------------------------------------------------------------------------------|
|---------------------------------------------------------------------------------------------|
|---5---5---5---5---5---5---5---5---5---5---5---5---5---5---5---5---5---5---5---5---5---5---5-|
|---------------------------------33-333-333-333-3----------------------------33-333-333-333-3|
|-33-333-333-333-355-555-555-555-5----------------33-333-333-335-555-555-555-5----------------|
|---------------------------------------------------------------------------------------------|

|------------------------------------------------------------------|
|------------------------------------------------------------------|
|---5---5---5---5---5---5---5---5---5---5---5---5---5---5--5555555-|
|-------------------------------------------------33-333-333333333-|
|-00-000-000-000-033-333-333-333-355-555-555-555-5-----------------|
|------------------------------------------------------------------|

Gtr. 2:  (when gtr. 1's bass note is the A)
|-7-7-7-7-8-8-8-8-7-7-7-7-8-8-8-8-1-1-1-1-3-3-3-3-1-1-1-1---------|
|---------------------------------------------------------1-1-1-1-|
|-----------------------------------------------------------------|
|-----------------------------------------------------------------|
|-----------------------------------------------------------------|
|-----------------------------------------------------------------|

Gtr. 4:
|-xxxx-|
|-xxxx-|
|-xxxx-|
|-xxxx-|
|-xxxx-|
|-xxxx-|

REPEAT CHORUS
REPEAT INTRO w/ Gtr. 2 playing the whole time

End:

Gtr. 1:
|------------------|
|------------------|
|------------------|
|-3----------------|
|-3----------------|
|-1----------------|

Gtr. 2:
|------------------|
|------------------|
|-5----------------|
|-x----------------|
|-3----------------|
|------------------|
            
Hard to play? Try these video lessons and learn fast. | Correct




comments powered by Disqus
↑ Back to top | Tablatures and chords are parodies/interpretations of the original songs. You may use it for private study, scholarship, research or language learning purposes only