» » »

Yellowcard, Believe Tabs (ver.4)

Artists:  A B C D E F G H I J K L M N O P Q R S T U V W X Y Z # 

Believe Tabs (ver.4)

Yellowcard Tabs
Rating:
0/5 (0 votes)
Believe lessons Tabs too difficult? Try these video lessons and learn fast
                Hey guys, this is how what I have tabbed so far for this this song, I'm pretty sure its 
right, if not, its very close. I'm uploading a guitar pro version very soon :D

			     SONG NAME - Band Name
-------------------------------------------------------------------------------

Tuning: Drop D

INTRO

- Rythm

e|-----------------------------------------------------------------------------|
B|-----------------------------------------------------------------------------|
G|-----------------------------------------------------------------------------|
D|-----6----4----2----9----6----4----2----9------------------------------------|
A|-----6----4----2----9----6----4----2----9------------------------------------|
D|-----6----4----2----9----6----4----2----9------------------------------------|
	8x each

- Violin (sounds great on a guitar)
e|--------------------------------------------------------------------------|
B|--------------------------------------------------------------------------|
G|-----------------------------8--6-----------------------------------------|
D|-----9----8--9--9--------9----------9-------------------------------------|
A|--------------------------------------------------------------------------|
D|--------------------------------------------------------------------------|

- Lead (comes in second play of Rythm)
e|-----14----14----14----14----12----12----11----11-|
B|9/12----12----12----12----12----12----12----12----|
G|--------------------------------------------------|
D|--------------------------------------------------|
A|--------------------------------------------------|
D|--------------------------------------------------|

e|-------12----12----12----12----11----11----9----9-|
B|----12----12----12----12----12----12----12----12--|
G|--------------------------------------------------|
D|--------------------------------------------------|
A|--------------------------------------------------|
D|--------------------------------------------------|



VERSE
- Lead
e|-----14------14-----14------14----12----12----11----12-|
B|12-12---12-12--12-12---12-12---12----12----12----12----|
G|-------------------------------------------------------|
D|-------------------------------------------------------|
A|-------------------------------------------------------|
D|-------------------------------------------------------|

- Rythm
e|--------------------------------------------------------------------------|
B|9/12-12-12-12-12-12-12-11-11-11-11-11-11-11-11-9-9-9-999-9-9-9-9-9-9-9-9-9|
G|--------------------------------------------------------------------------|
D|--------------------------------------------------------------------------|
A|--------------------------------------------------------------------------|
D|--------------------------------------------------------------------------|


Chorus - (Same as Intro)
- Rythm

e|-----------------------------------------------------------------------------|
B|-----------------------------------------------------------------------------|
G|-----------------------------------------------------------------------------|
D|-----6----4----2----9----6----4----2----9------------------------------------|
A|-----6----4----2----9----6----4----2----9------------------------------------|
D|-----6----4----2----9----6----4----2----9------------------------------------|
	8x each

- Violin (sounds great on a guitar)
e|--------------------------------------------------------------------------|
B|--------------------------------------------------------------------------|
G|-----------------------------8--6-----------------------------------------|
D|-----9----8--9--9--------9----------9-------------------------------------|
A|--------------------------------------------------------------------------|
D|--------------------------------------------------------------------------|

- Lead (comes in second play of Rythm)
e|-----14----14----14----14----12----12----11----11-|
B|9/12----12----12----12----12----12----12----12----|
G|--------------------------------------------------|
D|--------------------------------------------------|
A|--------------------------------------------------|
D|--------------------------------------------------|

e|-------12----12----12----12----11----11----9----9-|
B|----12----12----12----12----12----12----12----12--|
G|--------------------------------------------------|
D|--------------------------------------------------|
A|--------------------------------------------------|
D|--------------------------------------------------|


Thats what I have tabbed so far, let us know if you pick up on anything via email.

************************************

| /   slide up
| \   slide down
| h   hammer-on
| p   pull-off
| ~   vibrato
| +   harmonic
| x   Mute note
| b   Bend
| pb  Pre-bend
| br  Bend release
| pbr Pre-bend release
| brb Bend release bend

************************************
            
Submit corrections

comments powered by Disqus
↑ Back to top | Yellowcard Tabs for Believe. Lyrics for acoustic guitar and electric guitar. Tablatures and chords are parodies/interpretations of the original songs. You may use it for private study, scholarship, research or language learning purposes only