» » »

Yellowcard, Believe Bass tabs (ver.2)

Artists:  A B C D E F G H I J K L M N O P Q R S T U V W X Y Z # 

Believe Bass tabs (ver.2)

Yellowcard Tabs
 Rating:
4/5 (7 votes)
Believe lessons Tabs too difficult? Try these video lessons and learn fast
1
                Tuning: Standard


Intro 
G|--------------------------------------------------------------------------|
D|--------------------------------------------------------------------------|
A|--9999999999999999--5555555555555555--0000000000000000--7777777777777777--|
E|--------------------------------------------------------------------------|
  
REST

Verse 1 (0:38)
G|----------------------------------------|
D|----------------------------------------|
A|----0~---4444--5555--7777/--------------|
E|---0-----------------------[7-542-0]----|
  
Pre-Chorus 1 (0:49)
G|-----------------------------------------------------------|
D|-----------------------------------------------------------|
A|--5555555555555555--77777777--2222-4444--9999999999999999--|
E|-----------------------------------------------------------|

(cont.) (0:57) [elevens, not ones]
G|---------------------------------|
D|---------------------------------|
A|--11-11-11-11--9999--7777--4444--|
E|---------------------------------|

(cont.) (01:00)
G|-------------------------------------------------|
D|-------------------------------------------------|
A|--55555555--00000000--77777777--2222-4444--/9~\--|
E|-------------------------------------------------|

REST

Intro (01:16) x2
G|--------------------------------------------------------------------------|
D|--------------------------------------------------------------------------|
A|--9999999999999999--5555555555555555--0000000000000000--7777777777777777--|
E|--------------------------------------------------------------------------|

Verse 2 (01:38) x2               2nd ending (01:49) [twelves and elevens]
G|------------------------------|---------------------------------------|
D|------------------------------|---------------------------------------|
A|--44-44--55-55---------77-77--|--/1212-1212--99-99--77-77--1111-1111--|
E|----------------55-55---------|---------------------------------------|

(cont.) (01:54)
G|------------------------------|
D|------------------------------|
A|--44-44--55-55--77-77--22-22--|
E|------------------------------|

Pre-Chorus 2 (2:00)
G|----------------------------------------------------|
D|----------------------------------------------------|
A|--5555555555555555--77777777--2222-4444--99999999/--|
E|----------------------------------------------------|

(cont.) (02:07) [twelves, elevens, and fourteens]
G|-------------------------------------------------------------------------|
D|-------------------------------------------------------------------------|
A|--11-11-11-11--12-12-12-12--11-11-11-11--12-12-12-12--14-14-14-14--7777--|
E|-------------------------------------------------------------------------|

(cont.) (02:11)
G|-------------------------------------------------|
D|-------------------------------------------------|
A|--55555555--00000000--77777777--2222-4444--/9~\--|
E|-------------------------------------------------|

REST

Chorus (02:27)
G|---------------------|
D|---------------------|
A|--9~h11--5~--0~--7~--|
E|---------------------|

Breakdown (02:44) x3
G|--------------------------------------------------------------------------|
D|--------------------------------------------------------------------------|
A|--9999999999999999--5555555555555555--0000000000000000--7777777777777777--|
E|--------------------------------------------------------------------------|

(cont.) (03:16)
G|-------------------------------------------------------|
D|-------------------------------------------------------|
A|--99999999/11-11-11-11/12-12-12-12\555555555/999\7777--|
E|-------------------------------------------------------|

(cont.) (03:22)
G|--------------------------------------|
D|--------------------------------------|
A|--0000000000000000--7777777777777777--|
E|--------------------------------------|

REST

Chorus (03:30) x3
G|--------------------------------------------------------------------------|
D|--------------------------------------------------------------------------|
A|--9999999999999999--5555555555555555--0000000000000000--7777777777777777--|
E|--------------------------------------------------------------------------|

(cont.) (04:03)
G|--------------------------------------------------------------------------|
D|--------------------------------------------------------------------------|
A|--9999999999999999--5555555555555555--0000000000000000--22222222----------|
E|----------------------------------------------------------------00000000--|

END. Great song, hope you enjoy it.
            
Submit corrections

comments powered by Disqus
↑ Back to top | Yellowcard Bass for Believe. Lyrics for acoustic guitar and electric guitar. 1 Tablatures and chords are parodies/interpretations of the original songs. You may use it for private study, scholarship, research or language learning purposes only