» » »

Believe Tabs (ver.3)

Artists:  A B C D E F G H I J K L M N O P Q R S T U V W X Y Z # 

Believe Tabs (ver.3)

Yellowcard
Rating:
5/5 (17 votes)

Hard to play? Try these video lessons and learn fast.
                Band: Yellowcard
Guitar 1: Ben Harper
Guitar 2: Ryan Key

Guitar 1

Intro:(I Think this is a Guitar)(0:05)
E|----------------------------------------------------------------------|
B|----------------------------------------------------------------------|
G|----------------------------------------------------------------------|
D|-------------------------------7-7--6-6-------------------------------|
A|----7-7--5-5-----5-5--4-4--0-------------2--7-7--5-5------------------|
D|-7------------0-------------------------------------------------------|

Intro:(0:16)
E|----------------------------------------------------------------------|
B|----------------------------------------------------------------------|
G|-1414141414141414141414141414-9-9-9-9-6-6-6-6-6-6-6-6-4-4-4-4-4-4-4-4-|
D|--x-x-x-x-x-x-x-x-x-x-x-x-x-x-x-x-x-x-x-x-x-x-x-x-x-x-x-x-x-x-x-x-x-x-|
A|-1212121212121212121212121212-7-7-7-7-4-4-4-4-4-4-4-6-2-2-2-2-2-2-2-2-|
D|----------------------------------------------------------------------|

Verse:x4 (0:27)
E|----------------------------------------------------------------------|
B|----------------------------------------------------------------------|
G|----------------------------------------------------------------------|
D|-7--7-7--7--7-7--7--7-7--6--6-6---------------------------------------|
A|-4--4-4--5--5-5--7--7-7--7--7-7---------------------------------------|
D|----------------------------------------------------------------------|

Pre Chorus:(0:49)
E|-------------------------------------------------------------------|
B|-------------------------------------------------------------------|
G|-7-7-7-7-7-7-7-7-7-9-9-9-9-9-9-9-9-1111111112-12-14-14-14-14-14-14-|
D|-x-x-x-x-x-x-x-x-x-x-x-x-x-x-x-x-x-x-x-x-x-x--x--x--x--x--x--x--x--|
A|-5-5-5-5-5-5-5-5-5-7-7-7-7-7-7-7-7-9-9-9-9-11-11-12-12-12-12-12-12-|
D|

Pre Chorus Cont.:
E|-------------------------------------------------------------|
B|-------------------------------------------------------------|
G|-9-9-9-9-9-9-9-9-9-7-7-7-7-14-14-14-14-14-14-9-9-9-9-4-4-4-4-|
D|-x-x-x-x-x-x-x-x-x-x-x-x-x-x--x--x--x--x--x--x-x-x-x-x-x-x-x-|
A|-7-7-7-7-7-7-7-7-7-5-5-5-5-12-12-12-12-12-12-7-7-7-7-2-2-2-2-|
D|-------------------------------------------------------------|

Chorus: (1:05)
E|-----------------------------------------------------|
B|-----------------------------------------------------|
G|----2------2------2------2----2------2------2------2-|
D|-----------------------------------------------------|
A|-0-0--0-0-0--0-0-0-----------------------------------|
D|-*-*--*-*-*--*-*-*--0-0-0--0-0--0-0-0--0-0-0--0-0-0--|
                      * * *  * *  * * *  * * *  * * *

Chorus Cont.:
E|-------------------------------------------------------|
B|-------------------------------------------------------|
G|----2------2------2------2----2------2-----------------|
D|-------------------------------------------------------|
A|-0-0--0-0-0--0-0-0--0-0-0--------------4-4-4-4-4-4-4-4-|
D|-*-*--*-*-*--*-*-*--*-*-*--2-2--2-2-2--2-2-2-2-2-2-2-2-|
                             * *  * * *  * * * * * * * *

Intro:(I Think this is a Guitar)(1:16)
E|----------------------------------------------------------------------|
B|----------------------------------------------------------------------|
G|----------------------------------------------------------------------|
D|-------------------------------7-7--6-6-------------------------------|
A|----7-7--5-5-----5-5--4-4--0-------------2--7-7--5-5------------------|
D|-7------------0-------------------------------------------------------|

Intro: (1:27)
E|----------------------------------------------------------------------|
B|----------------------------------------------------------------------|
G|-1414141414141414141414141414-9-9-9-9-6-6-6-6-6-6-6-6-4-4-4-4-4-4-4-4-|
D|--x-x-x-x-x-x-x-x-x-x-x-x-x-x-x-x-x-x-x-x-x-x-x-x-x-x-x-x-x-x-x-x-x-x-|
A|-1212121212121212121212121212-7-7-7-7-4-4-4-4-4-4-4-6-2-2-2-2-2-2-2-2-|
D|----------------------------------------------------------------------|

Verse:x4 (1:38)
E|----------------------------------------------------------------------|
B|----------------------------------------------------------------------|
G|----------------------------------------------------------------------|
D|-7--7-7--7--7-7--7--7-7--6--6-6---------------------------------------|
A|-4--4-4--5--5-5--7--7-7--7--7-7---------------------------------------|
D|----------------------------------------------------------------------|

Pre Chorus:(2:00)
E|-------------------------------------------------------------------|
B|-------------------------------------------------------------------|
G|-7-7-7-7-7-7-7-7-7-9-9-9-9-9-9-9-9-1111111112-12-14-14-14-14-14-14-|
D|-x-x-x-x-x-x-x-x-x-x-x-x-x-x-x-x-x-x-x-x-x-x--x--x--x--x--x--x--x--|
A|-5-5-5-5-5-5-5-5-5-7-7-7-7-7-7-7-7-9-9-9-9-11-11-12-12-12-12-12-12-|
D|

Pre Chorus Cont.:
E|-------------------------------------------------------------|
B|-------------------------------------------------------------|
G|-9-9-9-9-9-9-9-9-9-7-7-7-7-14-14-14-14-14-14-9-9-9-9-4-4-4-4-|
D|-x-x-x-x-x-x-x-x-x-x-x-x-x-x--x--x--x--x--x--x-x-x-x-x-x-x-x-|
A|-7-7-7-7-7-7-7-7-7-5-5-5-5-12-12-12-12-12-12-7-7-7-7-2-2-2-2-|
D|-------------------------------------------------------------|

Chorus:x2 (2:16)
E|-----------------------------------------------------|
B|-----------------------------------------------------|
G|----2------2------2------2----2------2------2------2-|
D|-----------------------------------------------------|
A|-0-0--0-0-0--0-0-0-----------------------------------|
D|-*-*--*-*-*--*-*-*--0-0-0--0-0--0-0-0--0-0-0--0-0-0--|
                      * * *  * *  * * *  * * *  * * *

Chorus Cont.:
E|-------------------------------------------------------|
B|-------------------------------------------------------|
G|----2------2------2------2----2------2-----------------|
D|-------------------------------------------------------|
A|-0-0--0-0-0--0-0-0--0-0-0--------------4-4-4-4-4-4-4-4-|
D|-*-*--*-*-*--*-*-*--*-*-*--2-2--2-2-2--2-2-2-2-2-2-2-2-|
                             * *  * * *  * * * * * * * *

Bridge: (Play as many times needed both parts) (2:39)
E|--------------------------------------------------------|
B|--------------------------------------------------------|
G|--------------------------------------------------------|
D|-7-9p7-11p7-9p7-11p7-9p7-11p7-9p7-11p7-9p7--------------|
A|--------------------------------------------------------|
D|--------------------------------------------------------|

Bridge: (Heres the other part lisson for timing)
E|-------------------------------------------------------|
B|-------------------------------------------------------|
G|9-11p9-13p9-11p9-13p9-11p9-13p9-11p9-13p9-11p9---------|
D|-------------------------------------------------------|
A|-------------------------------------------------------|
D|-------------------------------------------------------|

Intro:(I Think this is a Guitar)(3:30)
E|----------------------------------------------------------------------|
B|----------------------------------------------------------------------|
G|----------------------------------------------------------------------|
D|-------------------------------7-7--6-6-------------------------------|
A|----7-7--5-5-----5-5--4-4--0-------------2--7-7--5-5------------------|
D|-7------------0-------------------------------------------------------|

Intro: (3:41)
E|----------------------------------------------------------------------|
B|----------------------------------------------------------------------|
G|-1414141414141414141414141414-9-9-9-9-6-6-6-6-6-6-6-6-4-4-4-4-4-4-4-4-|
D|--x-x-x-x-x-x-x-x-x-x-x-x-x-x-x-x-x-x-x-x-x-x-x-x-x-x-x-x-x-x-x-x-x-x-|
A|-1212121212121212121212121212-7-7-7-7-4-4-4-4-4-4-4-6-2-2-2-2-2-2-2-2-|
D|----------------------------------------------------------------------|

Outro:(Play as many times as needed) (3:52)
E|------------------------------------------------|
B|------------------------------------------------|
G|------------------------------------------------|
D|------------------------------------------------|
A|-9-11p9-13p9-11p9-13p9-11p9-13p9-11p9-13p9-11p9-|
D|------------------------------------------------|


Guitar 2

Intro:x2 (0:05)
E|-----------------------------------------------------------------|
B|-----------------------------------------------------------------|
G|-----------------------------------------------------------------|
D|-4-4-4-4-4-4-4-4-0-0-0-0-0-0-0-0-7-7-7-7-7-7-7-7-2-2-2-2-2-2-2-2-|
A|-4-4-4-4-4-4-4-4-0-0-0-0-0-0-0-0-7-7-7-7-7-7-7-7-2-2-2-2-2-2-2-2-|
D|-4-4-4-4-4-4-4-4-0-0-0-0-0-0-0-0-7-7-7-7-7-7-7-7-2-2-2-2-2-2-2-2-|

Verse:(Repeat as many times as needed)(0:38)
E|--------|
B|--------|
G|------9-|
D|-7-7----|
A|--------|
D|--------|

Pre Chorus:(0:49)
E|-----------------------------------------------------------------|
B|-----------------------------------------------------------------|
G|-----------------------------------------------------------------|
D|-0-0-0-0-0-0-0-0-2-2-2-2-2-2-2-2-4-4-4-4-4-4-4-4-2-2-2-2-2-2-2-2-|
A|-0-0-0-0-0-0-0-0-2-2-2-2-2-2-2-2-4-4-4-4-4-4-4-4-2-2-2-2-2-2-2-2-|
D|-0-0-0-0-0-0-0-0-2-2-2-2-2-2-2-2-4-4-4-4-4-4-4-4-2-2-2-2-2-2-2-2-|

Pre Chorus Cont.:
E|---------------------------------|
B|---------------------------------|
G|---------4-4-4-4---------4-4-4-4-|
D|-0-0-0-0-4-4-4-4-2-2-2-2-4-4-4-4-|
A|-0-0-0-0-2-2-2-2-2-2-2-2-2-2-2-2-|
D|-0-0-0-0---------2-2-2-2---------|

Chorus: Guitar 1

Intro:x2 (1:16)
E|-----------------------------------------------------------------|
B|-----------------------------------------------------------------|
G|-----------------------------------------------------------------|
D|-4-4-4-4-4-4-4-4-0-0-0-0-0-0-0-0-7-7-7-7-7-7-7-7-2-2-2-2-2-2-2-2-|
A|-4-4-4-4-4-4-4-4-0-0-0-0-0-0-0-0-7-7-7-7-7-7-7-7-2-2-2-2-2-2-2-2-|
D|-4-4-4-4-4-4-4-4-0-0-0-0-0-0-0-0-7-7-7-7-7-7-7-7-2-2-2-2-2-2-2-2-|

Verse:(Repeat as many times as needed)(1:49)
E|--------|
B|--------|
G|------9-|
D|-7-7----|
A|--------|
D|--------|

Pre Chorus:(2:00)
E|-----------------------------------------------------------------|
B|-----------------------------------------------------------------|
G|-----------------------------------------------------------------|
D|-0-0-0-0-0-0-0-0-2-2-2-2-2-2-2-2-4-4-4-4-4-4-4-4-2-2-2-2-2-2-2-2-|
A|-0-0-0-0-0-0-0-0-2-2-2-2-2-2-2-2-4-4-4-4-4-4-4-4-2-2-2-2-2-2-2-2-|
D|-0-0-0-0-0-0-0-0-2-2-2-2-2-2-2-2-4-4-4-4-4-4-4-4-2-2-2-2-2-2-2-2-|

Pre Chorus Cont.:
E|---------------------------------|
B|---------------------------------|
G|---------4-4-4-4---------4-4-4-4-|
D|-0-0-0-0-4-4-4-4-2-2-2-2-4-4-4-4-|
A|-0-0-0-0-2-2-2-2-2-2-2-2-2-2-2-2-|
D|-0-0-0-0---------2-2-2-2---------|

Chorus: Guitar 1

Interlude:x2 (3:05)
E|-----------------------------------------------------------------|
B|-----------------------------------------------------------------|
G|-----------------------------------------------------------------|
D|-4-4-4-4-4-4-4-4-0-0-0-0-0-0-0-0-7-7-7-7-7-7-7-7-2-2-2-2-2-2-2-2-|
A|-4-4-4-4-4-4-4-4-0-0-0-0-0-0-0-0-7-7-7-7-7-7-7-7-2-2-2-2-2-2-2-2-|
D|-4-4-4-4-4-4-4-4-0-0-0-0-0-0-0-0-7-7-7-7-7-7-7-7-2-2-2-2-2-2-2-2-|

Chorus:x4 (3:30)
E|-----------------------------------------------------------------|
B|-----------------------------------------------------------------|
G|-----------------------------------------------------------------|
D|-4-4-4-4-4-4-4-4-0-0-0-0-0-0-0-0-7-7-7-7-7-7-7-7-2-2-2-2-2-2-2-2-|
A|-4-4-4-4-4-4-4-4-0-0-0-0-0-0-0-0-7-7-7-7-7-7-7-7-2-2-2-2-2-2-2-2-|
D|-4-4-4-4-4-4-4-4-0-0-0-0-0-0-0-0-7-7-7-7-7-7-7-7-2-2-2-2-2-2-2-2-|

That is about it!

There are some parts that i know seem ify, but there are a lot of quiet parts in the 
maybe you guys can figure some of them out. For Guitar 1, the Intro, Pre Chorus, and the 
are not fully correct. This is how i play it, and it sounds just fine to me. Everything
on Guitar 2 is correct!
            
Hard to play? Try these video lessons and learn fast. | Correct




comments powered by Disqus
↑ Back to top | Tablatures and chords are parodies/interpretations of the original songs. You may use it for private study, scholarship, research or language learning purposes only