>
 >
Love Replica 1

Love Replica 1 Guitar Tabs

X Japan - Love Replica 1 chords, tabs, tablatures, lyrics

Guitar lessons | Add/correct | Request | Top 50 tabs Artists:  A B C D E F G H I J K L M N O P Q R S T U V W X Y Z 0-9

Love Replica 1 Guitar Tabs – X Japan

CD, Sheet music, Poster

Do you like Love Replica 1? Share with your friends now
TabsTabs v2
X Japan
Love Replica

The actual version of this has about 4 guitars playing at once.
These are the main Lead guitar parts (probably played by hide). about 4/5 of the way 
the lead
stops and another guitar continues playing, so i tabbed that 'till the end of the song.


e|--14--14------------------------------------------------------------------11-12--13-13-|
B|----------14--14--14-15-12----------14--14--15--14-15-14------12-11-12-13--------------|
G|----------------------------14--14------------------------14---------------------------|
D|---------------------------------------------------------------------------------------|
A|---------------------------------------------------------------------------------------|
E|---------------------------------------------------------------------------------------|

e|--14--14------------------------------------------------------------------11-12--13-13-|
B|----------14--14--14-15-12----------14--14--15--14-15-14------12-11-12-13--------------|
G|----------------------------14--14------------------------14---------------------------|
D|---------------------------------------------------------------------------------------|
A|---------------------------------------------------------------------------------------|
E|---------------------------------------------------------------------------------------|

e|--14-12-10-9-7-5--7-5-4-7---12-10-9-7-5-4---5-2-4-5---10-9-7-5-4-2---4--1--7---|
B|-------------------------------------------------------------------------------|
G|-------------------------------------------------------------------------------|
D|-------------------------------------------------------------------------------|
A|-------------------------------------------------------------------------------|
E|-------------------------------------------------------------------------------|

e|--5--5-4-5-7--9-6-7-9-10-12--14-12-10-9-7-5--7--4-5-7--12-10-9-7-5-4--5--2-4-5-|
B|-------------------------------------------------------------------------------|
G|-------------------------------------------------------------------------------|
D|-------------------------------------------------------------------------------|
A|-------------------------------------------------------------------------------|
E|-------------------------------------------------------------------------------|

e|--10-9-7-5-4-2--4-14-13------------------------------------------------2--5--2---|
B|------------------------15-14-12------------------------0--------0--2----------2-|
G|----------------------------------14--11-----11--9-7-6---------------------------|
D|-----------------------------------------11----------------6--3------------------|
A|---------------------------------------------------------------------------------|
E|---------------------------------------------------------------------------------|

e|--2--0------4-2-1---------------1--5--2------2--0--------------------2---5---2----|
B|-------3-2---------3-2-0-----2-----------2---------3-2--0----------2------------2-|
G|--------------------------1--------------------------------1-----2----------------|
D|--------------------------------------------------------------3-------------------|
A|----------------------------------------------------------------------------------|
E|----------------------------------------------------------------------------------|

e|--2--2-0---------------------------------------------10--9--7--5--4--2--1----------------|
B|----------3--2---2--3--2--3--2--3--2--3--2--3--2--3------------------------3--2--0-------|
G|------------------------------------------------------------------------------------2--1-|
D|-----------------------------------------------------------------------------------------|
A|-----------------------------------------------------------------------------------------|
E|-----------------------------------------------------------------------------------------|

e|--14--14--------------------------------------------------------------------11-12--13-16-19-|
B|----------14--14----14-15-12----------14--14--15--14-15-14------12----12-13-----------------|
G|------------------------------14--14------------------------14-----14-----------------------|
D|--------------------------------------------------------------------------------------------|
A|--------------------------------------------------------------------------------------------|
E|--------------------------------------------------------------------------------------------|

e|--14--14------------------------------------10--12----------12--12-10-9-7--6-----------4---4--|
B|----------14--14--14-15-12--------------10----------12------------------------7---7-----------|
G|----------------------------14--14--11------------------13------------------------------------|
D|----------------------------------------------------------------------------------------------|
A|----------------------------------------------------------------------------------------------|
E|----------------------------------------------------------------------------------------------|

e|----------2---2-----------1---1---5---5---9---9---14---14---16---16-------------14---14---|
B|--5---5-----------3---3-----------------------------------------------17---17-------------|
G|------------------------------------------------------------------------------------------|
D|------------------------------------------------------------------------------------------|
A|------------------------------------------------------------------------------------------|
E|------------------------------------------------------------------------------------------|

e|------------13---13---------------------------------------------2--5--2------2---0--------|
B|--15---15----------------------------------------0--------0--2-----------2----------3--2--|
G|----------------------14--11------11---9--7--6--------------------------------------------|
D|------------------------------11--------------------6--3----------------------------------|
A|------------------------------------------------------------------------------------------|
E|------------------------------------------------------------------------------------------|

e|--4--2--1-----------------1---5---2------2---0-------------------------2----5---2-----2--2--0--|
B|-----------3--2--0-----2-------------2----------3--2--0-------------2--------------2-----------|
G|--------------------1------------------------------------1-------2-----------------------------|
D|------------------------------------------------------------3----------------------------------|
A|-----------------------------------------------------------------------------------------------|
E|-----------------------------------------------------------------------------------------------|

e|-------------------------------|
B|--3--2----0---------0----------|
G|--------------1--2-----1----2--|
D|-------------------------------|
A|-------------------------------|
E|-------------------------------|

e|--6--2--6---4--2--4---7-----7---6-----4---6-----6---4-----4---7-----7---6-----4---|
B|-------------------------7---------7---------6---------6---------6---------6------|
G|----------------------------------------------------------------------------------|
D|--4-------------------------------------------------------------------------------|
A|------------------------------------------8---------------------------------------|
E|----------------------------------------------------------------------------------|

e|--6--0--6---4--0--4---7--0--7---9--7--------------------------6-----6-------------|
B|--------------------------------------9---8-----8---9-----9-------------8-----8---|
G|---------------------------------------------8---------8---------8---------8------|
D|----------------------------------------------------------------------------------|
A|--7---------------------------------------6---------------------------------------|
E|----------------------------------------------------------------------------------|

e|------------4-------------------4------------------4------------------|
B|-----0--4------4---------0--4------4------------4-----4---------0--4--|
G|------------------4---0---------------4------4-----------4------------|
D|--6---------------------------------------4-----------------3---------|
A|----------------------------------------------------------------------|
E|----------------------------------------------------------------------|

e|--4--------------------------------------------------------|
B|-----4---------------2-----------2-----------2-----------2-|
G|--------4--------2-----------2-----------2-----------2-----|
D|-------------4-----------3-----------2-----------1---------|
A|-----------------------------------------------------------|
E|-----------------------------------------------------------|

e|------------------------------------------------------------------------------------------------|
B|----------2-----------2-----------2-----------2-----------2-----------2-----------2-----------2-|
G|------2-----------2-----------2-----------2-----------2-----------2-----------2-----------2-----|
D|--4-----------3-----------2-----------1-----------4-----------3-----------2-----------1---------|
A|------------------------------------------------------------------------------------------------|
E|------------------------------------------------------------------------------------------------|

e|------------------------------------------------------------------------------------------------|
B|----------2-----------2-----------2-----------2-----------2-----------2-----------2-----------2-|
G|------2-----------2-----------2-----------2-----------2-----------2-----------2-----------2-----|
D|--4-----------3-----------2-----------1-----------4-----------3-----------2-----------1---------|
A|------------------------------------------------------------------------------------------------|
E|------------------------------------------------------------------------------------------------|

e|------------------------------------------------------------------------------------------------|
B|----------2-----------2-----------2-----------2-----------2-----------2-----------2-----------2-|
G|------2-----------2-----------2-----------2-----------2-----------2-----------2-----------2-----|
D|--4-----------3-----------2-----------1-----------4-----------3-----------2-----------1---------|
A|------------------------------------------------------------------------------------------------|
E|------------------------------------------------------------------------------------------------|

Whoo, thats a long one.


~Elliot G.~





Comments


Popular X Japan tabs & chords
Alive Bass Tabs
Alive 2 Bass Tabs
Art Of Life 2 Bass Tabs
Rusty Nail Bass Tabs
Tears 1 Chords
Alive Tabs
Dahlia Tabs
Kurenai Tabs
Silent Jealousy Intro Tabs
Tears 2 Tabs


Song lyrics



↑ Back to top | Tablatures and chords are parodies/interpretations of the original songs. You may use it for private study, scholarship, research or language learning purposes only
© 2014 AZChords.com Contact us | Privacy policy | DMCA | Add/correct tabs | Request tabs | Top 50 tabs