>
 >
Ill Kill You

Ill Kill You Guitar Tabs

X Japan - Ill Kill You chords, tabs, tablatures, lyrics

Guitar lessons | Add/correct | Request | Top 50 tabs Artists:  A B C D E F G H I J K L M N O P Q R S T U V W X Y Z 0-9

Ill Kill You Guitar Tabs – X Japan

CD, Sheet music, Poster

Do you like Ill Kill You? Share with your friends now
Bass TabsBass Tabs v2TabsTabs v2
I'll Kill You
X Japan

This seems like a lot (I guess) but it's a really fast song, so you zoom through it.


[Intro] x8

e|--------------------|
B|------------8-------|
G|--9--7--9-----7-----|
D|--9--7--9-------7---|
A|--------------------|
E|--------------------|

[INTRO END]


[VERSE]

e|--------------------------------------------------------------|
B|--------------------------------------------------------------|
G|--------------------------------------------------------------|
D|--9--------------9---------------7--------------7-------------|
A|--7-7-7-7-7-7-7--7-7-7-7-7-7-7---5-5-5-5-5-5-5--5-5-5-5-5-5-5-|
E|--------------------------------------------------------------|

e|-----------------------------------------------------------------|
B|-----------------------------------------------------------------|
G|-----------------------------------------------------------------|
D|-----------------------------------------------------------------|
A|--10-7-7-7-7-7-7--10-7-7-7-7-7-7--10-7-7-7-7-7-7--10-7-7-7-7-7-7-|
E|-----------------------------------------------------------------|

e|--------------------------------------------------------------|
B|--------------------------------------------------------------|
G|--------------------------------------------------------------|
D|--9--------------9---------------7--------------7-------------|
A|--7-7-7-7-7-7-7--7-7-7-7-7-7-7---5-5-5-5-5-5-5--5-5-5-5-5-5-5-|
E|--------------------------------------------------------------|

e|-----------------------------------------------------------------|
B|-----------------------------------------------------------------|
G|-----------------------------------------------------------------|
D|-----------------------------------------------------------------|
A|--10-7-7-7-7-7-7--10-7-7-7-7-7-7--10-7-7-7-7-7-7--10-7-7-7-7-7-7-|
E|-----------------------------------------------------------------|

e|-----------------------------------------------------------------|
B|-----------------------------------------------------------------|
G|-----------------------------------------------------------------|
D|--10--------------10---------------12-----------------------7----|
A|---8-8-8-8-8-8-8---8-8-8-8-8-8-8---10-10-10-10-10-10-10--10---10-|
E|-----------------------------------------------------------------|

e|-----------------------------------------------------------------|
B|-----------------------------------------------------------------|
G|-----------------------------------------------------------------|
D|--10--------------10---------------12-----------------------7----|
A|---8-8-8-8-8-8-8---8-8-8-8-8-8-8---10-10-10-10-10-10-10--10---10-|
E|-----------------------------------------------------------------|

e|-------------------------------------------------------------------------------------|
B|-------------------------------------------------------------------------------------|
G|-------------------------------------------------------------------------------------|
D|--10--------------10---------------12-----------------------7------------------------|
A|---8-8-8-8-8-8-8---8-8-8-8-8-8-8---10-10-10-10-10-10-10--10---10---12-12-12-12-12-12-|
E|-------------------------------------------------------------------------------------|

[VERSE END]

[VERSE 1-2 BREAK]

e|--------------------------------------|
B|--------------------------------------|
G|--------------------------------------|
D|--------------------------------------|
A|--------------------------------------|
E|--5-5-5-5-7-7-7-7-8-8-8-8-10-10-10-10-|

[VERSE 1-2 BREAK END]


REPEAT VERSE


[VERSE-TO-CHORUS]

e|----------------------------|
B|----------------------------|
G|----------------------------|
D|----------------------------|
A|-12-12-12-12-12-12--12--12--|
E|----------------------------|

[VERSE-CHORUS END]


[CHORUS]

e|--------------------------------------------------------------------|
B|--------------------------------------------------------------------|
G|--------------------------------------------------------------------|
D|--------9-------5--------------9-------5--------------9-------5-----|
A|--------7---------9-5----------7---------9-5----------7---------9-5-|
E|--0-0-0---0-0-0----------0-0-0---0-0-0----------0-0-0---0-0-0-------|

e|-----------------|
B|-----------------|
G|-----------------|
D|--7-----7--5-----|
A|-----10------9-5-|
E|-----------------|

e|--------------------------------------------------------------------|
B|--------------------------------------------------------------------|
G|--------------------------------------------------------------------|
D|--------9-------5--------------9-------5--------------9-------5-----|
A|--------7---------9-5----------7---------9-5----------7---------9-5-|
E|--0-0-0---0-0-0----------0-0-0---0-0-0----------0-0-0---0-0-0-------|

e|----------------------------------|
B|----------------------------------|
G|----------------------------------|
D|--7-----7--5-------9--9--9--------|
A|-----10------9-5---7--7--7--7-----|
E|-------------------------------7--|

e|-----------------------------------------------------------|
B|-----------------------------------------------------------|
G|-----------------------------------------------------------|
D|-----------------------------------------------------------|
A|--3-------------3--------------5-------------5-------------|
E|--1-1-1-1-1-1-1-1-1-1-1-1-1-1--3-3-3-3-3-3-3-3-3-3-3-3-3-3-|

e|--------------------------------------------------------|
B|--------------------------------------------------------|
G|--------------------------------------------------------|
D|--------------------------------------------------------|
A|--7-------------7-------------7--------------3-2--------|
E|--5-5-5-5-5-5-5-5-5-5-5-5-5-5-5-5-5-5-5-5-5------5-3----|

e|-----------------------------------------------------------|
B|-----------------------------------------------------------|
G|-----------------------------------------------------------|
D|-----------------------------------------------------------|
A|--3-------------3--------------5-------------5-------------|
E|--1-1-1-1-1-1-1-1-1-1-1-1-1-1--3-3-3-3-3-3-3-3-3-3-3-3-3-3-|

e|---------------------------------------------|
B|---------------------------------------------|
G|-------------------------------9-7-5---------|
D|-------------------------------------9-7-5---|
A|--7-------------7----------------------------|
E|--5-5-5-5-5-5-5-5-5-5-5-5-5-5----------------|

e|-----------------------------------------------------------|
B|-----------------------------------------------------------|
G|-----------------------------------------------------------|
D|-----------------------------------------------------------|
A|--3-------------3--------------5-------------5-------------|
E|--1-1-1-1-1-1-1-1-1-1-1-1-1-1--3-3-3-3-3-3-3-3-3-3-3-3-3-3-|

e|--------------------------------------------------------|
B|--------------------------------------------------------|
G|--------------------------------------------------------|
D|--------------------------------------------------------|
A|--7-------------7-------------7--------------3-2--------|
E|--5-5-5-5-5-5-5-5-5-5-5-5-5-5-5-5-5-5-5-5-5------5-3----|

e|-----------------------------------------------------------|
B|-----------------------------------------------------------|
G|-----------------------------------------------------------|
D|-----------------------------------------------------------|
A|--3-------------3--------------5-------------5-------------|
E|--1-1-1-1-1-1-1-1-1-1-1-1-1-1--3-3-3-3-3-3-3-3-3-3-3-3-3-3-|

e|------------------------------------------------------------------------------|
B|------------------------------------------------------------------------------|
G|------------------------------------------------------------------------------|
D|------------------------------------------------------------------------------|
A|--7-7-7-7-7-7-7-7-7-7-7-7-7-7-7-7-7-7-7-7-7-7-7-7-7-7-7-7-7-7-7-7-7-7-7-7-7-7-|
E|--5-5-5-5-5-5-5-5-5-5-5-5-5-5-5-5-5-5-5-5-5-5-5-5-5-5-5-5-5-5-5-5-5-5-5-5-5-5-|
                                                                    *faster...*
[CHORUS END]


SOLO


\ - Slide down
b - full bend
~ - tremolo/vibrato/whatever the hell it's called (wobbly pitch, same volume)


e|--------------------------15--14--12--14--12----------------------|
B|--------15b--15b-15b--17----------------------15--14--12--10~~~~--|
G|------------------------------------------------------------------|
D|------------------------------------------------------------------|
A|------------------------------------------------------------------|
E|--10\-------------------------------------------------------------|

e|------------------------------------------------------------------|
B|--10-9-8-7---------10-9-8-7---------------------------------------|
G|-----------9-8-7-6----------9-8-7-6-9-8-7-6-9-8-7-6---------------|
D|----------------------------------------------------7~~~~---------|
A|------------------------------------------------------------------|
E|------------------------------------------------------------------|

e|-------------------------------10------10--15-14-13-12----14-17-16-15-14--|
B|-------------------15------14------12------------------12-----------------|
G|--------9------14------12-------------------------------------------------|
D|-----8-----12-------------------------------------------------------------|
A|--7-----------------------------------------------------------------------|
E|--------------------------------------------------------------------------|

e|--12--15--19-18-17-15---------|
B|----------------------15b~~~--|
G|------------------------------|
D|------------------------------|
A|------------------------------|
E|------------------------------|

e|--17-------15-------17-------15-------19-------17-------19-------17--------|
B|---------------------------------------------------------------------------|
G|-----17-17----17-17----17-17----17-17----19-19----19-19----19-19----19-19--|
D|---------------------------------------------------------------------------|
A|---------------------------------------------------------------------------|
E|---------------------------------------------------------------------------|

e|--17-------15-------17-------15-------19-------17-------19-------17--------|
B|---------------------------------------------------------------------------|
G|-----17-17----17-17----17-17----17-17----19-19----19-19----19-19----19-19--|
D|---------------------------------------------------------------------------|
A|---------------------------------------------------------------------------|
E|---------------------------------------------------------------------------|

e|--17-------15-------17-------15-------19-------17-------19-------17--------|
B|---------------------------------------------------------------------------|
G|-----17-17----17-17----17-17----17-17----19-19----19-19----19-19----19-19--|
D|---------------------------------------------------------------------------|
A|---------------------------------------------------------------------------|
E|---------------------------------------------------------------------------|

e|---------------------------------------------|
B|---------------------------------------------|
G|---------------------------------------------|
D|--17b--17b--17b--17b--17b--17b---17b~~~~~~---|
A|---------------------------------------------|
E|---------------------------------------------|

REPEAT VERSE 1+2

e|--------------------------------------------------------------|
B|--------------------------------------------------------------|
G|----------7-------5-------5---7-----------7-------5-------7---|
D|--9-------7-------5-------5---7----9------7-------5-------7---|
A|--7--------------------------------7--------------------------|
E|--------------------------------------------------------------|

e|--------------------------------------------------------------|
B|--------------------------------------------------------------|
G|---------------------9-------9----------------------7-------7-|
D|---------------------9-------9----------------------7-------7-|
A|--7-7-7-7-7-7-7-7-7-----7-7------5-5-5-5-5-5-5-5-5-----5-5----|
E|--------------------------------------------------------------|

e|--------------------------------------------------------------|
B|--------------------------------------------------------------|
G|---------------------5-------5----------------------5-------5-|
D|---------------------5-------5----------------------5-------5-|
A|--3-3-3-3-3-3-3-3-3-----3-3------3-3-3-3-3-3-3-3-3-----3-3----|
E|--------------------------------------------------------------|

e|--------------------------------------------------------------|
B|--------------------------------------------------------------|
G|---------------------9-------9----------------------7-------7-|
D|---------------------9-------9----------------------7-------7-|
A|--7-7-7-7-7-7-7-7-7-----7-7------5-5-5-5-5-5-5-5-5-----5-5----|
E|--------------------------------------------------------------|

e|--------------------------------------------------------------|
B|--------------------------------------------------------------|
G|---------------------5-------5----------------------5-------5-|
D|---------------------5-------5----------------------5-------5-|
A|--3-3-3-3-3-3-3-3-3-----3-3------3-3-3-3-3-3-3-3-3-----3-3----|
E|--------------------------------------------------------------|

e|----------------------------------------------------------------|
B|---------7------8--------8---10----------7------8-------8---10--|
G|--9-------------------------------9-----------------------------|
D|---------4------5--------5---7-----------4------5-------5---7---|
A|--7-------------------------------7-----------------------------|
E|----------------------------------------------------------------|

e|--------------------------------------------------------------|
B|--------------------------------------------------------------|
G|--------------------------------------------------------------|
D|--9--------------9---------------7--------------7-------------|
A|--7-7-7-7-7-7-7--7-7-7-7-7-7-7---5-5-5-5-5-5-5--5-5-5-5-5-5-5-|
E|--------------------------------------------------------------|

e|------------------------------------|
B|------------------------------------|
G|------------------------------------|
D|--5-------------5--------------5--7-|
A|--3-3-3-3-3-3-3-3-3-3-3-3-3-3--3--5-|
E|------------------------------------|

e|--------------------------------------------------------------|
B|--------------------------------------------------------------|
G|--------------------------------------------------------------|
D|--9--------------9---------------7--------------7-------------|
A|--7-7-7-7-7-7-7--7-7-7-7-7-7-7---5-5-5-5-5-5-5--5-5-5-5-5-5-5-|
E|--------------------------------------------------------------|

e|--------------------------------------------------|
B|--------------------------------------------------|
G|--------------------------------------------------|
D|--5-------------5--------------5--7--9--9--9~~~~~-|
A|--3-3-3-3-3-3-3-3-3-3-3-3-3-3--3--5--7--7--7~~~~~-|
E|--------------------------------------------------|

HA HAA!



It does seem a bit long-winded but it's mostly power chords.
As for the solo...damn.

~ELLIOT G~





Comments


Popular X Japan tabs & chords
Ill Kill You 2 Bass Tabs
20th Century Boy Tabs
Alive Tabs
Art Of Life Tabs
Crucify My Love Tabs
Endless Rain 3 Tabs
Joker Tabs
Kurenai Tabs
Rose Of Pain Tabs
Silent Jealousy Intro Tabs


Song lyrics



↑ Back to top | Tablatures and chords are parodies/interpretations of the original songs. You may use it for private study, scholarship, research or language learning purposes only
© 2014 AZChords.com Contact us | Privacy policy | DMCA | Add/correct tabs | Request tabs | Top 50 tabs