>
 >
Dahlia

Dahlia Guitar Tabs

X Japan - Dahlia chords, tabs, tablatures, lyrics

Guitar lessons | Add/correct | Request | Top 50 tabs Artists:  A B C D E F G H I J K L M N O P Q R S T U V W X Y Z 0-9

Dahlia Guitar Tabs – X Japan

CD, Sheet music, Poster

Do you like Dahlia? Share with your friends now
Bass TabsBass Tabs v2Tabs

DAHLIA
As recorded by X Japan


	



Gtr I (E A D G B E) - 'Vocals'
Gtr II (E A D G B E) - 'Untitled'
Gtr III (E A D G B E) - 'Untitled'

  Q=175
 4/4
  Gtr II
  E S S S S E +H       +H     H
|-----------3-(3)----|-(3)---------|
|-----------3-(3)----|-(3)---------|
|-----------0-(0)----|-(0)---------|
|--------------------|--------2----|
|--------------------|-------------|
|-0-0-0-0-0----------|-------------|
|
| Gtr III
| E S S S S E +H       +W
|--------------------|-------------|
|--------------------|-------------|
|-----------9-(9)----|-(9)---------|
|-----------9-(9)----|-(9)---------|
|-----------7-(7)----|-(7)---------|
|-0-0-0-0-0----------|-------------|


  E S S S S  E  +Q   Q     +Q    Q   +H
|------------5--(5)--5--|--(5)---5---(5)------|
|------------5--(5)-----|---------------------|
|------------2--(2)-----|---------------------|
|-----------------------|---------------------|
|-----------------------|---------------------|
|-0-0-0-0-0-------------|---------------------|
|
| E S S S S  E  +H         +E  E E E  Q   Q
|-----------------------|------5-5-5--5---3---|
|-----------10-(10)-----|-(10)-6-6-6--5---3---|
|------------9--(9)-----|--(9)----------------|
|------------7--(7)-----|--(7)----------------|
|-----------------------|---------------------|
|-0-0-0-0-0-------------|---------------------|


  E S S S S E +H       +W           S S S S S S E +H        W
|-----------3-(3)----|-(3)--------|-------------5-(5)----|--5------------------|
|-----------3-(3)----|-(3)--------|-------------5-(5)----|--5------------------|
|-----------0-(0)----|-(0)--------|-------------2-(2)----|--2------------------|
|--------------------|------------|----------------------|---------------------|
|--------------------|------------|----------------------|---------------------|
|-0-0-0-0-0----------|------------|-0-0-0-0-0-0----------|---------------------|
|
| E S S S S E +H       +W           S S S S S S E +H       +E  E E E E E +Q
|--------------------|------------|-------------5-(5)----|-(5)-5-5-5-5-5-(5)---|
|-----------5-(5)----|-(5)--------|-------------5-(5)----|-(5)-6-6-6-6-5-(5)---|
|-----------4-(4)----|-(4)--------|-------------2-(2)----|-(2)-----------------|
|-----------2-(2)----|-(2)--------|----------------------|---------------------|
|--------------------|------------|----------------------|---------------------|
|-0-0-0-0-0----------|------------|-0-0-0-0-0-0----------|---------------------|


  E E E E  E  E E E   E E E E +E  E +E  E
|-------------------|---------------------|
|-------------------|-------3-(3)-4-(4)-5-|
|-------0-------0---|---0-2---------------|
|-0-2-2----2--2---2-|-2-------------------|
|-------------------|---------------------|
|-------------------|---------------------|
|
| E E E E +E  E Q     E E E E +E  E +E  E
|-------------------|---------------------|
|-------------------|---------------------|
|-------------------|---------------------|
|-------5-(5)-7-----|-------5-(5)-6-(6)-7-|
|-5-7---5-(5)-7-7---|-5-7---5-(5)-6-(6)-7-|
|-5-7-----------7---|-5-7-----------------|


  E E E E  E  E E E   E E E E +E  E +E  E
|-------------------|---------------------|
|-------------------|---------------------|
|-------------------|-------7-(7)-8-(8)-9-|
|-5-----5-------5---|---5-7---------------|
|---7-7----7--7---7-|-7-------------------|
|-------------------|---------------------|
|
| E E E E +E  E Q     E E E E +E  E +E  E
|-------------------|---------------------|
|-------------------|---------------------|
|-------------------|---------------------|
|-------5-(5)-7-----|-------5-(5)-6-(6)-7-|
|-5-7---5-(5)-7-7---|-5-7---5-(5)-6-(6)-7-|
|-5-7-----------7---|-5-7-----------------|


   E  E  E  E  E   E  E  E    E  E  E  E  +E   E  +E   E
|--------------------------|-----------------------------|
|--------------------------|-----------------------------|
|--------------------------|-----------------------------|
|--------------------------|----------12-(12)-13-(13)-14-|
|----------10--------10----|----10-12--------------------|
|-10-12-12----12--12----12-|-12--------------------------|
|
|  E  E  E  E +E   E  Q       E  E  E  E  +E   E  +E   E
|--------------------------|-----------------------------|
|--------------------------|-----------------------------|
|--------------------------|-----------------------------|
|-----------5-(5)--7-------|-----------5--(5)--6--(6)--7-|
|--5--7-----5-(5)--7--7----|--5--7-----5--(5)--6--(6)--7-|
|--5--7---------------7----|--5--7-----------------------|


 3/4                  4/4
   E  E  E  E  +Q      E E S S S S E  E  +E   E
|--------------------|--------------------------|
|--------------------|--------------------------|
|--------------------|---------------12-(12)-14-|
|--------------------|---------------12-(12)-14-|
|----------12-(12)---|-----------------------12-|
|-15-12-12-----------|-0-0-0-0-0-0-0-15-(15)----|
|
|  E  E  E  E  +E  E   Q   E   E   E  E  +E   E
|--------------------|------------------------5-|
|--------------------|----------------8--(8)--5-|
|--------------------|-9---7---9------7--(7)----|
|-----------5--(5)-7-|-9---7---9----------------|
|--5--7-----5--(5)-7-|--------------------------|
|--5--7--------------|--------------------------|


  E E S S S S E  E  +E   E   E E S S S S E  E  E  E
|--------------------------|------------------------|
|--------------------------|------------------------|
|---------------12-(12)-14-|---------------12-13-14-|
|---------------12-(12)-14-|---------------12-13-14-|
|-----------------------12-|------------------------|
|-0-0-0-0-0-0-0-15-(15)----|-0-0-0-0-0-0-0----------|
|
| Q   E   E   E  E  +E   E   Q   E   E   E  E  E  E
|----------------3--(3)--5-|----------------3--4--5-|
|-5---3---5------3--(3)--5-|-5---3---5------3--4--5-|
|-4---2---4----------------|-4---2---4--------------|
|--------------------------|------------------------|
|--------------------------|------------------------|
|--------------------------|------------------------|


   +E   E  E  E  E  E  +E   E
|-----------------------------|
|-----------------------------|
|-(14)-12-14-12-14------------|
|-(14)-12-14-12-14-12-(12)-13-|
|------------------12-(12)-13-|
|-----------------------------|
|
|  +E   E  E  E  E  E  +E   E
|--(5)--3--5--3--5------------|
|--(5)--3--5--3--5------------|
|-------------------7--(7)--8-|
|-------------------7--(7)--8-|
|-----------------------------|
|-----------------------------|


  E E S S S S E  E  +E   E   E E S S S S E  E  +E   E   E E S S S S E  E  E  E
|--------------------------|--------------------------|------------------------|
|--------------------------|--------------------------|------------------------|
|---------------12-(12)-14-|---------------12-(12)-14-|---------------12-13-14-|
|---------------12-(12)-14-|---------------12-(12)-14-|---------------12-13-14-|
|-----------------------12-|-----------------------12-|------------------------|
|-0-0-0-0-0-0-0-15-(15)----|-0-0-0-0-0-0-0-15-(15)----|-0-0-0-0-0-0-0----------|
|
| Q   E   E   E  E  +E   E   Q   E   E   E  E  +E   E   Q   E   E   E  E  E  E
|------------------------5-|----------------3--(3)--5-|----------------3--4--5-|
|----------------8--(8)--5-|-5---3---5------3--(3)--5-|-5---3---5------3--4--5-|
|-9---7---9------7--(7)----|-4---2---4----------------|-4---2---4--------------|
|-9---7---9----------------|--------------------------|------------------------|
|--------------------------|--------------------------|------------------------|
|--------------------------|--------------------------|------------------------|


   +E   E  E  E  E  E  +E   E    Q   E  E E  E  +E   E
|-----------------------------|------------------------|
|-----------------------------|------------------------|
|-(14)-12-14-12-14------------|-------------12-(12)-14-|
|-(14)-12-14-12-14-12-(12)-13-|-14--12-14---12-(12)-14-|
|------------------12-(12)-13-|-14--12-14--------------|
|-----------------------------|------------------------|
|
|  +E   E  E  E  E  E  +E   E    Q   E  E E  E  +E   E
|--(5)--3--5--3--5------------|----------------------5-|
|--(5)--3--5--3--5------------|--------------8--(8)--5-|
|-------------------7--(7)--8-|--9---7--9----7--(7)----|
|-------------------7--(7)--8-|--9---7--9--------------|
|-----------------------------|------------------------|
|-----------------------------|------------------------|


   Q   E  E E  E  +E   E    Q   E  E E  E  E  E
|------------------------|----------------------|
|------------------------|----------------------|
|-------------12-(12)-14-|-------------12-13-14-|
|-14--12-14---12-(12)-14-|-14--12-14---12-13-14-|
|-14--12-14--------------|-14--12-14------------|
|------------------------|----------------------|
|
|  Q   E  E E  E  +E   E    Q   E  E E  E  E  E
|--------------3--(3)--5-|--------------3--4--5-|
|--5---3--5----3--(3)--5-|--5---3--5----3--4--5-|
|--4---2--4--------------|--4---2--4------------|
|------------------------|----------------------|
|------------------------|----------------------|
|------------------------|----------------------|


  Gtr I
    W                          W
|---------------------------|---------------------|
|---------------------------|---------------------|
|---------------------------|---------------------|
|---------------------------|---------------------|
|---------------------------|---------------------|
|---------------------------|---------------------|
|
| Gtr II
|  +E   E  E  E  E  E  +Q      H     E  E  +E   E
|---------------------------|---------------------|
|---------------------------|-------12-10-(10)-12-|
|-(14)-12-14-12-14----------|-------12-11-(11)-12-|
|-(14)-12-14-12-14-12-(12)--|-14------------------|
|------------------12-(12)--|-15------------------|
|---------------------------|---------------------|
|
| Gtr III
|  +E   E  E  E  E  E  +Q      W
|--(5)--3--5--3--5----------|---------------------|
|--(5)--3--5--3--5----------|---------------------|
|-------------------7--(7)--|---------------------|
|-------------------7--(7)--|-10------------------|
|---------------------------|-10------------------|
|---------------------------|--8------------------|


   W                    Q  Q  E E +E  E
|---------------------|----3--2-3-(3)-5-|
|---------------------|-----------------|
|---------------------|-----------------|
|---------------------|-----------------|
|---------------------|-----------------|
|---------------------|-----------------|
|
|  H     E  E  +E   E   Q  Q  H
|--------8--7--(7)--8-|-7---------------|
|-10----10--8--(8)-10-|-8---------------|
|-11------------------|-----------------|
|---------------------|-----------------|
|---------------------|-----------------|
|---------------------|-----------------|
|
|  H     E  E  +E   E   Q  Q  H
|---------------------|-----------------|
|---------------------|-----------------|
|--7--------7--(7)--8-|-9---------------|
|--7--------7--(7)--8-|-9---------------|
|-------------------6-|-7---------------|
|-10-------10-(10)----|-----------------|


  +Q   Q  E E +E  E   +Q   E E E E +E  E
|-(5)--3--2-3-(3)-3-|-(3)--3-3-2-3-(3)-5-|
|-------------------|--------------------|
|-------------------|--------------------|
|-------------------|--------------------|
|-------------------|--------------------|
|-------------------|--------------------|
|
|  W                   W
|-------------------|--------------------|
|-------------------|--------------------|
|-------------------|--------------------|
|-------------------|--------------------|
|-------------------|--7-----------------|
|-------------------|--------------------|
|
|  W                   W
|-------------------|--------------------|
|-------------------|--------------------|
|-------------------|--------------------|
|-------------------|--------------------|
|-------------------|--7-----------------|
|-------------------|--------------------|


  +E  E E E E E +E  E   +W
|-(5)-5-3-3-2-3-(3)---|-----------------------------|
|-------------------5-|-(5)-------------------------|
|---------------------|-----------------------------|
|---------------------|-----------------------------|
|---------------------|-----------------------------|
|---------------------|-----------------------------|
|
| +H        H            E  E S S S S  S  S S S Q
|---------------------|-----------------------------|
|---------------------|-----------------------------|
|---------------------|--7--9-----------------------|
|---------------------|--7--9-------------------9---|
|-(7)-------7---------|-----7-------------------7---|
|---------------------|-10----0-0-0-0--0--0-0-0-----|
|
| +H        H            E  E E   E   +E    E   E E
|---------------------|---------------------5-------|
|---------------------|-----------8---(8)---5-------|
|---------------------|--7--9-----7---(7)-----------|
|---------------------|--7--9-----------------------|
|-(7)-------7---------|-----------------------------|
|---------------------|-------------------------0-0-|


  Gtr II
   E   E   E   E E E +Q      E E S S S S  S  S S S Q
|--------------------------|---------------------------|
|--------------------------|---------------------------|
|--------------7---7-(7)---|-7-9-----------------------|
|--7---9-------5---5-(5)---|-7-9-------------------9---|
|------7-------------------|-5-7-------------------7---|
|-10-----------------------|-----0-0-0-0--0--0-0-0-----|
|
| Gtr III
|  S S S S S S E E E +E  E   E E E   E   +E    E   E E
|--------------3---3-(3)-5-|-------------------5-------|
|--------------3---3-(3)-5-|---------8---(8)---5-------|
|--------------------------|-7-9-----7---(7)-----------|
|--------------------------|-7-9-----------------------|
|--------------------------|---------------------------|
|--0-0-0-0-0-0-------------|-----------------------0-0-|


   E   E   E   E E E +Q
|---------------------------|
|---------------------------|
|--------------7---7-(7)----|
|--7---9-------5---5-(5)----|
|------7--------------------|
|-10------------------------|
|
|  S S S S S S E E E +E  E
|--------------3---3-(3)-5--|
|--------------3---3-(3)-5--|
|---------------------------|
|---------------------------|
|---------------------------|
|--0-0-0-0-0-0--------------|


  Gtr I
  Q  E E E E +E  E   +Q   Q  E    E   +Q
|----3-3-2-3-(3)-5-|-(5)--3--2----3---(3)-------|
|------------------|----------------------------|
|------------------|----------------------------|
|------------------|----------------------------|
|------------------|----------------------------|
|------------------|----------------------------|
|
| Gtr II
| W                  +H      S S  S S  S  S S S
|------------------|----------------------------|
|------------------|----------------------------|
|-9----------------|-(9)------------------------|
|-9----------------|-(9)-----9------------------|
|-7----------------|-(7)---------10----0--0-0-0-|
|------------------|----------------------------|
|
| Gtr III
| W                  +W
|------------------|----------------------------|
|------------------|----------------------------|
|-9----------------|-(9)------------------------|
|-9----------------|-(9)------------------------|
|-7----------------|-(7)------------------------|
|------------------|----------------------------|


   Q  E E E E +E  E    +E  E E E  E E +E  E
|-----3-3-2-3-(3)-7-|--(7)-7-5-5--3-5-(5)-7-|
|-------------------|-----------------------|
|-------------------|-----------------------|
|-------------------|-----------------------|
|-------------------|-----------------------|
|-------------------|-----------------------|
|
|  W                   +H         H
|-------------------|-----------------------|
|-------------------|-----------------------|
|-12----------------|-(12)------------------|
|-12----------------|-(12)------------------|
|-10----------------|-(10)------------------|
|-------------------|------------12---------|
|
|  W                   +H         H
|-------------------|-----------------------|
|-------------------|-----------------------|
|--9----------------|--(9)------------------|
|--9----------------|--(9)------------------|
|--7----------------|--(7)--------7---------|
|-------------------|-----------------------|


  +W
|-(7)---------------------------|
|-------------------------------|
|-------------------------------|
|-------------------------------|
|-------------------------------|
|-------------------------------|
|
|  E   E S S S S  S  S S S  Q
|-------------------------------|
|-------------------------------|
|------9------------------------|
|-12---9--------------------9---|
|-12----------------------------|
|-10--12-0-0-0-0--0--0-0-0-12---|
|
|  E   E E   E   +E    E    E E
|----------------------5--------|
|------------8---(8)---5--------|
|--7---9-----7---(7)------------|
|--7---9------------------------|
|-------------------------------|
|---------------------------0-0-|


   H               E  E  +E  E   W          +W
|------------------------------|----------|--------|
|------------------------------|-5--------|-(5)----|
|---------------------7--(7)-7-|-5--------|-(5)----|
|---------------------9--(9)-9-|----------|--------|
|------------------------------|----------|--------|
|------------------------------|----------|--------|
|
|  E    E   E    E E  E  +Q      W           W
|------------------------------|-0--------|--------|
|------------------------------|-1--------|--------|
|------------------------------|-2--------|--------|
|-------9-------12---12-(12)---|-3--------|--2-----|
|-12------------10---10-(10)---|----------|--------|
|-10---12----------------------|----------|--------|
|
|  S S  S S S S  E E  E  +Q      W          +W
|----------------3----3--(3)---|-0--------|-(0)----|
|----------------3----3--(3)---|-1--------|-(1)----|
|------------------------------|-2--------|-(2)----|
|------------------------------|-3--------|-(3)----|
|------------------------------|----------|--------|
|--0-0--0-0-0-0----------------|----------|--------|


  Q  E E E E +E  E   +Q   Q  E E +E  E   H    H       Q.   E +Q   Q
|----5-5-5-5-(5)-5-|-(5)--5--3-5-(5)-3-|-3---------|-----------------|
|------------------|-------------------|-----------|--3----5-(5)--6--|
|------------------|-------------------|-----------|-----------------|
|------------------|-------------------|-----------|-----------------|
|------------------|-------------------|-----------|-----------------|
|------------------|-------------------|-----------|-----------------|
|
| Gtrs II, III
| W                  +W                  W           +W
|-0----------------|-(0)---------------|-3---------|-(3)-------------|
|-1----------------|-(1)---------------|-3---------|-(3)-------------|
|-2----------------|-(2)---------------|-4---------|-(4)-------------|
|-3----------------|-(3)---------------|-3---------|-(3)-------------|
|------------------|-------------------|-----------|-----------------|
|------------------|-------------------|-----------|-----------------|


  Q  E E E E +E  E   +Q   Q  E E +E  E   +H     H       Q.   E +Q   Q
|----5-5-5-5-(5)-5-|-(5)--5--3-5-(5)-3-|-(3)---------|-----------------|
|-5----------------|-------------------|-------------|--3----5-(5)--6--|
|------------------|-------------------|-------------|-----------------|
|------------------|-------------------|-------------|-----------------|
|------------------|-------------------|-------------|-----------------|
|------------------|-------------------|-------------|-----------------|
|
| Gtr II
| W                  +W                   W            +W
|-0----------------|-(0)---------------|--3----------|-(3)-------------|
|-1----------------|-(1)---------------|--3----------|-(3)-------------|
|-2----------------|-(2)---------------|--4----------|-(4)-------------|
|-3----------------|-(3)---------------|--5----------|-(5)-------------|
|------------------|-------------------|-------------|-----------------|
|------------------|-------------------|-------------|-----------------|
|
| Gtr III
| W                  +W                   W            +H       H
|-0----------------|-(0)---------------|--3----------|-(3)-------------|
|-1----------------|-(1)---------------|--3----------|-(3)-------------|
|-2----------------|-(2)---------------|--4----------|-(4)-------------|
|-3----------------|-(3)---------------|--5----------|-(5)------2------|
|------------------|-------------------|-------------|-----------------|
|------------------|-------------------|-------------|-----------------|


  W                             +H              Q     Q
|-----------------------------|-------------------------------|
|-5---------------------------|-(5)-------------3-----5-------|
|-----------------------------|-------------------------------|
|-----------------------------|-------------------------------|
|-----------------------------|-------------------------------|
|-----------------------------|-------------------------------|
|
| W                             +W
|-0---------------------------|-(0)---------------------------|
|-0---------------------------|-(0)---------------------------|
|-1---------------------------|-(1)---------------------------|
|-2---------------------------|-(2)---------------------------|
|-----------------------------|-------------------------------|
|-----------------------------|-------------------------------|
|
| E S S S S S S E S S S S S S    E  S S S S S S E S S S S S S
|-----------------------------|-------------------------------|
|-----------------------------|-------------------------------|
|-----------------------------|-------------------------------|
|-2---------------------------|-------------------------------|
|---------------7-------------|--7--------------7-------------|
|-4-4-4-4-4-4-4-4-4-4-4-4-4-4-|--4--4-4-4-4-4-4-4-4-4-4-4-4-4-|


  Q     E   E   +H                 H              Q     Q
|-------------------------------|-------------------------------|
|-3-----1---1---(1)-------------|-----------------------1-------|
|-------------------------------|-------------------------------|
|-------------------------------|-------------------------------|
|-------------------------------|-------------------------------|
|-------------------------------|-------------------------------|
|
| W                               +W
|-0-----------------------------|-(0)---------------------------|
|-1-----------------------------|-(1)---------------------------|
|-2-----------------------------|-(2)---------------------------|
|-2-----------------------------|-(2)---------------------------|
|-0-----------------------------|-(0)---------------------------|
|-------------------------------|-------------------------------|
|
| E S S S S S S  E  S S S S S S    E  S S S S S S E S S S S S S
|-------------------------------|-------------------------------|
|-------------------------------|-------------------------------|
|-------------------------------|-------------------------------|
|-------------------------------|-------------------------------|
|-7--------------7--------------|--7--------------7-------------|
|-5-5-5-5-5-5-5--5--5-5-5-5-5-5-|--5--5-5-5-5-5-5-5-5-5-5-5-5-5-|


  W                             +H              E E   +E    E
|-5---------------------------|-(5)-------------5-3---(3)---5---|
|-----------------------------|---------------------------------|
|-----------------------------|---------------------------------|
|-----------------------------|---------------------------------|
|-----------------------------|---------------------------------|
|-----------------------------|---------------------------------|
|
| W                             +W
|-0---------------------------|-(0)-----------------------------|
|-1---------------------------|-(1)-----------------------------|
|-2---------------------------|-(2)-----------------------------|
|-3---------------------------|-(3)-----------------------------|
|-----------------------------|---------------------------------|
|-----------------------------|---------------------------------|
|
| E S S S S S S E S S S S S S    E  S S S S S S E S S  S  S S S
|-----------------------------|---------------------------------|
|-----------------------------|---------------------------------|
|-----------------------------|---------------------------------|
|-----------------------------|---------------------------------|
|-3-------------3-------------|--3--------------3---------------|
|-1-1-1-1-1-1-1-1-1-1-1-1-1-1-|--1--1-1-1-1-1-1-1-1-1--1--1-1-1-|


  W                              H              Q    Q     Q  E E +H
|-3---------------------------|-----------------1----3---|-1--3----------|
|-----------------------------|-----------------3----5---|-3--5-5-(5)----|
|-----------------------------|--------------------------|------5-(5)----|
|-----------------------------|--------------------------|---------------|
|-----------------------------|--------------------------|---------------|
|-----------------------------|--------------------------|---------------|
|
| W                             +W                         W
|-3---------------------------|-(3)----------------------|---------------|
|-3---------------------------|-(3)----------------------|---------------|
|-4---------------------------|-(4)----------------------|---------------|
|-5---------------------------|-(5)----------------------|-5-------------|
|-----------------------------|--------------------------|-3-------------|
|-----------------------------|--------------------------|---------------|
|
| E S S S S S S E S S S S S S    E  S S S S S S E E +Q     W
|-----------------------------|--------------------------|---------------|
|-----------------------------|--------------------------|---------------|
|-----------------------------|--------------------------|---------------|
|-----------------------------|-------------------4-(4)--|-5-------------|
|-5-------------3-------------|--5--------------5-2-(2)--|-3-------------|
|-3-3-3-3-3-3-3-5-3-3-3-3-3-3-|--3--3-3-3-3-3-3-3--------|---------------|


  Q  E E E E +E  E   Q  E E +H        H     Q    Q     W
|------4-5-7-(7)-7-|-7--5-5-(5)----|-------------3---|-5----|
|------5-6-8-(8)-8-|-5--5-5-(5)----|-------------5---|-6----|
|------------------|---------------|-----------------|------|
|------------------|---------------|-----------------|------|
|------------------|---------------|-----------------|------|
|------------------|---------------|-----------------|------|
|
| W                  W                H     E E +Q     W
|------------------|---------------|-----------------|------|
|------------------|---------------|-----------------|------|
|-4----------------|---------------|-----------------|------|
|-2----------------|-2-------------|--2--------------|------|
|------------------|-0-------------|--0-------5-(5)--|-3----|
|------------------|---------------|----------3-(3)--|-1----|
|
| W                  W               +H     E E +Q     W
|------------------|---------------|-----------------|------|
|------------------|---------------|-----------------|------|
|-4----------------|---------------|-----------------|------|
|-2----------------|-2-------------|-(2)-------------|------|
|------------------|-0-------------|-(0)------5-(5)--|-3----|
|------------------|---------------|----------3-(3)--|-1----|


  H    E E +E  E   W          +W                      W
|-5----5-3-(3)-5-|-3--------|-(3)-------------------|-----------------------|
|-6----6-3-(3)-6-|-3--------|-(3)-------------------|-----------------------|
|----------------|----------|-----------------------|-----------------------|
|----------------|----------|-----------------------|-----------------------|
|----------------|----------|-----------------------|-----------------------|
|----------------|----------|-----------------------|-----------------------|
|
| W                W           E  S S S S S S Q  Q    Q  E E E E  S  S S S
|----------------|----------|--3--------------3--4--|-----------------------|
|----------------|----------|--3--------------3--4--|-----------------------|
|-2--------------|----------|--0--------------0--1--|-2--0-2----------------|
|-0--------------|----------|-----5-5-5-5-5-5-------|-2--0-2----------------|
|----------------|-5--------|-----5-5-5-5-5-5-------|--------0-0--0--0-0-0--|
|----------------|-3--------|-----5-5-5-5-5-5-------|-----------------------|
|
| W                W           H              Q  Q    Q  E E E E +E    E
|----------------|----------|-----------------------|-----------------------|
|----------------|----------|-----------------------|----------1-(1)---3----|
|-2--------------|----------|-----------------------|-2--0-2---0-(0)---2----|
|-0--------------|----------|--2--------------------|-2--0-2----------------|
|----------------|-5--------|-----------------5--6--|-----------------------|
|----------------|-3--------|-----------------3--4--|-----------------------|


  Gtr II
  Q  E E E E +E    E     Q  E E E E E E
|----------------------|----------------|
|----------1-(1)---3---|----------1-2-3-|
|-2--0-2---0-(0)---2---|-2--0-2---0-1-2-|
|-2--0-2---------------|-2--0-2---------|
|----------------------|----------------|
|----------------------|----------------|
|
| Gtr III
| Q  E E E E  S  S S S   Q  E E E E E E
|----------------------|----------------|
|----------------------|----------1-2-3-|
|-2--0-2---------------|-2--0-2---0-1-2-|
|-2--0-2---------------|-2--0-2---------|
|--------0-0--0--0-0-0-|----------------|
|----------------------|----------------|


  +E  E E E E E +E  E   Q  E E E E +E    E
|---------------------|----------------------|
|-(3)-1-3-1-3---------|----------1-(1)---3---|
|-(2)-0-2-0-2-0-(0)-1-|-2--0-2---0-(0)---2---|
|-------------0-(0)-1-|-2--0-2---------------|
|---------------------|----------------------|
|---------------------|----------------------|
|
| +E  E E E E E +E  E   Q  E E E E  S  S S S
|---------------------|----------------------|
|-(3)-1-3-1-3---------|----------------------|
|-(2)-0-2-0-2-0-(0)-1-|-2--0-2---------------|
|-------------0-(0)-1-|-2--0-2---------------|
|---------------------|--------0-0--0--0-0-0-|
|---------------------|----------------------|


  Gtr I
  W                      W                 W                   Q  Q  E E +E  E
|----------------------|----------------|--------------------|-----------------|
|----------------------|----------------|--------------------|----5--3-5-(5)-6-|
|----------------------|----------------|--------------------|----5--4-5-(5)-7-|
|----------------------|----------------|--------------------|-----------------|
|----------------------|----------------|--------------------|-----------------|
|----------------------|----------------|--------------------|-----------------|
|
| Gtr II
| Q  E E E E  S  S S S   Q  E E E E E E   +E  E E E E E +Q     W
|----------------------|----------------|--------------------|-0---------------|
|----------------------|----------1-2-3-|-(3)-1-3-1-3-3-(3)--|-1---------------|
|-2--0-2---------------|-2--0-2---0-1-2-|-(2)-0-2-0-2-2-(2)--|-2---------------|
|-2--0-2---------------|-2--0-2---------|--------------------|-3---------------|
|--------0-0--0--0-0-0-|----------------|--------------------|-----------------|
|----------------------|----------------|--------------------|-----------------|
|
| Gtr III
| Q  E E E E +E    E     Q  E E E E E E   +E  E E E E E +Q     W
|----------------------|----------------|--------------------|-----------------|
|----------------------|----------1-2-3-|-(3)-1-3-1-3-3-(3)--|-----------------|
|-2--0-2---2-(2)---0---|-2--0-2---0-1-2-|-(2)-0-2-0-2-2-(2)--|-----------------|
|-2--0-2---2-(2)---0---|-2--0-2---------|--------------------|-----------------|
|----------------------|----------------|--------------------|-3---------------|
|----------------------|----------------|--------------------|-1---------------|


  +Q   Q  E E +E  E   +Q   E E E E +E  E
|-------------------|--------------------|
|-(6)--5--3-5-(5)-5-|-(5)--5-5-3-5-(5)-6-|
|-(7)--5--4-5-(5)-5-|-(5)--5-5-4-5-(5)-7-|
|-------------------|--------------------|
|-------------------|--------------------|
|-------------------|--------------------|
|
| +W                   W
|-(0)---------------|--0-----------------|
|-(1)---------------|--1-----------------|
|-(2)---------------|--2-----------------|
|-(3)---------------|--3-----------------|
|-------------------|--------------------|
|-------------------|--------------------|
|
| +W                   W
|-------------------|--------------------|
|-------------------|--------------------|
|-------------------|--5-----------------|
|-------------------|--3-----------------|
|-(3)---------------|--------------------|
|-(1)---------------|--------------------|


  +E  E E E E E +E  E   +W
|---------------------|-------------------------|
|-(6)-6-5-5-3-5-(5)-5-|-(5)---------------------|
|-(7)-7-5-5-4-5-(5)-5-|-(5)---------------------|
|---------------------|-------------------------|
|---------------------|-------------------------|
|---------------------|-------------------------|
|
| +H        H            E  E E E  S  S S S Q
|-(0)-----------------|-------------------------|
|-(1)-----------------|-------------------------|
|-(2)-----------------|--0--2---------------2---|
|-(3)-------2---------|--0--2---------------2---|
|---------------------|-------0-0--0--0-0-0-----|
|---------------------|-------------------------|
|
| +H        H            E  E E E +E    E   E E
|---------------------|-------------------------|
|---------------------|---------1-(1)---3-------|
|-(5)-----------------|--0--2---0-(0)---2-------|
|-(3)-------2---------|--0--2-------------------|
|---------------------|---------------------0-0-|
|---------------------|-------------------------|


  Gtr II
  E   E   E   E E E +E  E   E E E E  S  S S S Q     E   E   E   E E E +E  E
|-------------------------|-----------------------|--------------------------|
|-------------1---1-(1)-3-|-----------------------|-------------1---1-(1)-3--|
|-0---2-------0---0-(0)-2-|-0-2---------------2---|-0---2-------0---0-(0)-2--|
|-0---2-------------------|-0-2---------------2---|-0---2--------------------|
|-------------------------|-----0-0--0--0-0-0-----|--------------------------|
|-------------------------|-----------------------|--------------------------|
|
| Gtr III
| S S S S S S E E E +E  E   E E E E +E    E   E E   S S S S S S E E E +E  E
|-------------------------|-----------------------|--------------------------|
|-------------1---1-(1)-3-|-------1-(1)---3-------|-------------1---1-(1)-3--|
|-------------0---0-(0)-2-|-0-2---0-(0)---2-------|-------------0---0-(0)-2--|
|-------------------------|-0-2-------------------|--------------------------|
|-0-0-0-0-0-0-------------|-------------------0-0-|-0-0-0-0-0-0--------------|
|-------------------------|-----------------------|--------------------------|


  Gtr I
  Q  Q  E E +E  E   +Q   Q  E E +Q
|-----------------|------------------|
|----5--3-5-(5)-6-|-(6)--5--3-5-(5)--|
|----5--4-5-(5)-7-|-(7)--5--4-5-(5)--|
|-----------------|------------------|
|-----------------|------------------|
|-----------------|------------------|
|
| Gtr II
| W                 +W
|-0---------------|-(0)--------------|
|-1---------------|-(1)--------------|
|-2---------------|-(2)--------------|
|-3---------------|-(3)--------------|
|-----------------|------------------|
|-----------------|------------------|
|
| Gtr III
| W                 +W
|-----------------|------------------|
|-----------------|------------------|
|-----------------|------------------|
|-----------------|------------------|
|-3---------------|-(3)--------------|
|-1---------------|-(1)--------------|


   Q   E E E E +E  E   +E  E E E E E +E  E
|--------------------|---------------------|
|------5-5-3-5-(5)-6-|-(6)-6-5-5-6-8-(8)-8-|
|------5-5-4-5-(5)-7-|-(7)-7-5-5-7-9-(9)-9-|
|--------------------|---------------------|
|--------------------|---------------------|
|--------------------|---------------------|
|
|  W                   +W
|--0-----------------|-(0)-----------------|
|--1-----------------|-(1)-----------------|
|--2-----------------|-(2)-----------------|
|--3-----------------|-(3)-----------------|
|--------------------|---------------------|
|--------------------|---------------------|
|
| +W                   +W
|--------------------|---------------------|
|--------------------|---------------------|
|--------------------|---------------------|
|--------------------|---------------------|
|-(3)----------------|-(3)-----------------|
|-(1)----------------|-(1)-----------------|


  +W            H     Q  Q    Q.         E   +H
|------------|--------------|--------------------------------|
|-(8)--------|--------6--8--|-6----------5---(5)-------------|
|-(9)--------|--------------|--------------------------------|
|------------|--------------|--------------------------------|
|------------|--------------|--------------------------------|
|------------|--------------|--------------------------------|
|
|  W           +H     H       H               H
|--3---------|-(3)----------|--------------------------------|
|--3---------|-(3)----------|--------------------------------|
|--4---------|-(4)----------|--------------------------------|
|--5---------|-(5)----2-----|--------------------------------|
|--5---------|-(5)----------|-3---------------3--------------|
|--3---------|-(3)----------|--------------------------------|
|
|  W           +H     H       E  S S S S S S  E  S S S S S S
|------------|--------------|--------------------------------|
|------------|--------------|--------------------------------|
|------------|--------------|--------------------------------|
|------------|--------2-----|-5---------------5--------------|
|--5---------|-(5)----------|-3--3-3-3-3-3-3--3--3-3-3-3-3-3-|
|--3---------|-(3)----------|--------------------------------|


  H             E E   +E    E     Q     E   E   +H
|-------------------------------|-------------------------------|
|---------------3-5---(5)---3---|-3-----1---1---(1)-------------|
|-------------------------------|-------------------------------|
|-------------------------------|-------------------------------|
|-------------------------------|-------------------------------|
|-------------------------------|-------------------------------|
|
| H             H                 W
|-------------------------------|-------------------------------|
|-------------------------------|-------------------------------|
|-------------------------------|-------------------------------|
|-------------------------------|-------------------------------|
|-2-------------2---------------|-0-----------------------------|
|-------------------------------|-------------------------------|
|
| E S S S S S S E S S  S  S S S   E S S S S S S  E  S S S S S S
|-------------------------------|-------------------------------|
|-------------------------------|-------------------------------|
|-------------------------------|-------------------------------|
|-5-------------5---------------|-2--------------2--------------|
|-2-2-2-2-2-2-2-2-2-2--2--2-2-2-|-0-0-0-0-0-0-0--0--0-0-0-0-0-0-|
|-------------------------------|-------------------------------|


  H             Q    Q      W
|-------------------------|-5---------------------------|
|--------------------1----|-----------------------------|
|-------------------------|-----------------------------|
|-------------------------|-----------------------------|
|-------------------------|-----------------------------|
|-------------------------|-----------------------------|
|
| H             E E +Q      W
|-------------------------|-----------------------------|
|-------------------------|-----------------------------|
|-------------------------|-----------------------------|
|-0---------------0-(0)---|-----------------------------|
|-------------------------|-3---------------------------|
|-------------------------|-----------------------------|
|
| E S S S S S S E E +E  E   E S S S S S S E S S S S S S
|-------------------------|-----------------------------|
|-------------------------|-----------------------------|
|-------------------------|-----------------------------|
|-2-------------2---------|-----------------------------|
|-0-0-0-0-0-0-0-0-5-(5)-5-|-3-------------3-------------|
|-----------------3-(3)-3-|-1-1-1-1-1-1-1-1-1-1-1-1-1-1-|


  +H              E E   +E    E     W
|-(5)-------------5-3---(3)---5---|-3---------------------------|
|---------------------------------|-----------------------------|
|---------------------------------|-----------------------------|
|---------------------------------|-----------------------------|
|---------------------------------|-----------------------------|
|---------------------------------|-----------------------------|
|
|  W                                W
|---------------------------------|-----------------------------|
|---------------------------------|-----------------------------|
|---------------------------------|-----------------------------|
|--3------------------------------|-----------------------------|
|---------------------------------|-----------------------------|
|---------------------------------|-3---------------------------|
|
|  E  S S S S S S E S S  S  S S S   E S S S S S S E S S S S S S
|---------------------------------|-----------------------------|
|---------------------------------|-----------------------------|
|---------------------------------|-----------------------------|
|---------------------------------|-----------------------------|
|--3--------------3---------------|-5-------------5-------------|
|--1--1-1-1-1-1-1-1-1-1--1--1-1-1-|-3-3-3-3-3-3-3-3-3-3-3-3-3-3-|


  H             Q    Q      Q.         E   +H
|---------------1----3----|-1----------0---(0)-------------|
|-------------------------|--------------------------------|
|-------------------------|--------------------------------|
|-------------------------|--------------------------------|
|-------------------------|--------------------------------|
|-------------------------|--------------------------------|
|
| H             E E +Q      W
|-------------------------|--------------------------------|
|-------------------------|--------------------------------|
|-------------------------|--------------------------------|
|-------------------------|--------------------------------|
|-5-----------------------|--------------------------------|
|-----------------7-(7)---|-8------------------------------|
|
| E S S S S S S E E +E  E   E  S S S S S S  E  S S S S S S
|-------------------------|--------------------------------|
|-------------------------|--------------------------------|
|-------------------------|--------------------------------|
|-----------------5-(5)-5-|-5---------------5--------------|
|-5-------------5-2-(2)-2-|-3--3-3-3-3-3-3--3--3-3-3-3-3-3-|
|-3-3-3-3-3-3-3-3---------|--------------------------------|


  Q     E   E   E E   +E    E     Q     E   E   +H
|-----------4---5-7---(7)---5---|-7-----5---5---(5)-------------|
|-------------------------------|-------------------------------|
|-------------------------------|-------------------------------|
|-------------------------------|-------------------------------|
|-------------------------------|-------------------------------|
|-------------------------------|-------------------------------|
|
| H             H                 W
|-------------------------------|-------------------------------|
|-------------------------------|-------------------------------|
|-------------------------------|-------------------------------|
|-------------------------------|-------------------------------|
|-7-------------5---------------|-------------------------------|
|-------------------------------|-5-----------------------------|
|
| E S S S S S S E S S  S  S S S   E S S S S S S  E  S S S S S S
|-------------------------------|-------------------------------|
|-------------------------------|-------------------------------|
|-2-------------2---------------|-------------------------------|
|-0-0-0-0-0-0-0-0-0-0--0--0-0-0-|-2--------------2--------------|
|-------------------------------|-0-0-0-0-0-0-0--0--0-0-0-0-0-0-|
|-------------------------------|-------------------------------|


  +H              Q    Q      W
|-(5)------------------3----|-5---------------------------|
|---------------------------|-----------------------------|
|---------------------------|-----------------------------|
|---------------------------|-----------------------------|
|---------------------------|-----------------------------|
|---------------------------|-----------------------------|
|
|  H              E E +Q      W
|---------------------------|-----------------------------|
|---------------------------|-----------------------------|
|---------------------------|-----------------------------|
|---------------------------|-----------------------------|
|---------------------------|-----------------------------|
|--5----------------3-(3)---|-1---------------------------|
|
|  E  S S S S S S E E +E  E   E S S S S S S E S S S S S S
|---------------------------|-----------------------------|
|---------------------------|-----------------------------|
|---------------------------|-----------------------------|
|--2--------------2---------|-----------------------------|
|--0--0-0-0-0-0-0-0-5-(5)-5-|-3-------------3-------------|
|-------------------3-(3)-3-|-1-1-1-1-1-1-1-1-1-1-1-1-1-1-|


  +H              E E   +E    E     W
|-(5)-------------5-3---(3)---5---|-3---------------------------|
|---------------------------------|-----------------------------|
|---------------------------------|-----------------------------|
|---------------------------------|-----------------------------|
|---------------------------------|-----------------------------|
|---------------------------------|-----------------------------|
|
|  W                                W
|---------------------------------|-----------------------------|
|---------------------------------|-----------------------------|
|---------------------------------|-----------------------------|
|--0------------------------------|-----------------------------|
|---------------------------------|-3---------------------------|
|---------------------------------|-----------------------------|
|
|  E  S S S S S S E S S  S  S S S   E S S S S S S E S S S S S S
|---------------------------------|-----------------------------|
|---------------------------------|-----------------------------|
|--2--------------2---------------|-----------------------------|
|--0--0-0-0-0-0-0-0-0-0--0--0-0-0-|-----------------------------|
|---------------------------------|-5-------------5-------------|
|---------------------------------|-3-3-3-3-3-3-3-3-3-3-3-3-3-3-|


  +W                      W                            Q  Q  Q  E E
|-(3)-------------------|-4-------------------------|----------------|
|-----------------------|---------------------------|-----------5-5--|
|-----------------------|---------------------------|-----4--5-------|
|-----------------------|---------------------------|----------------|
|-----------------------|---------------------------|----------------|
|-----------------------|---------------------------|----------------|
|
|  H              Q  Q    E S S S S E S S S S E S S    Q  Q  H
|-----------------------|---------------------------|-12-------------|
|--3--------------3-----|---------------------------|-12-------------|
|--0--------------0--5--|---------------------------|----------------|
|--------------------3--|---------------------------|----------------|
|-----------------------|-2-2-2-2-2-2-2-2-2-2-2-2-2-|----------------|
|-----------------------|-0-0-0-0-0-0-0-0-0-0-0-0-0-|----------------|
|
|  E  S S S S S S Q  Q    E S S S S E S S S S E S S    Q  Q  H
|-----------------------|---------------------------|----------------|
|-----------------------|---------------------------|----------------|
|-----------------------|---------------------------|----------------|
|-----------------------|---------------------------|----------------|
|--5--------------5--3--|-2-2-2-2-2-2-2-2-2-2-2-2-2-|--2-------------|
|--3--3-3-3-3-3-3-3--1--|-0-0-0-0-0-0-0-0-0-0-0-0-0-|--0-------------|


  H    H      H    H      Q  E E +H        Q   Q  Q  Q
|-7----5----|-3----1----|-1--0-0-(0)----|------------0--|
|-8----6----|-3----1----|-3--1-1-(1)----|------0--1-----|
|-----------|-----------|---------------|---------------|
|-----------|-----------|---------------|---------------|
|-----------|-----------|---------------|---------------|
|-----------|-----------|---------------|---------------|
|
| W           W           W               +W
|-----------|-----------|---------------|---------------|
|-----------|-----------|---------------|---------------|
|-----------|-----------|---------------|---------------|
|-----------|-----------|---------------|---------------|
|-3---------|-5---------|-5-------------|-(5)-----------|
|-1---------|-3---------|-3-------------|-(3)-----------|
|
| W           W           W               +W
|-1---------|-3---------|---------------|---------------|
|-1---------|-3---------|-5-------------|-(5)-----------|
|-2---------|-4---------|-5-------------|-(5)-----------|
|-3---------|-5---------|-5-------------|-(5)-----------|
|-3---------|-5---------|-3-------------|-(3)-----------|
|-1---------|-3---------|---------------|---------------|


   H     H       H     H
|-------------|-----------------|
|-12----10----|-12----13--------|
|-12----10----|-12----14--------|
|-------------|-----------------|
|-------------|-----------------|
|-------------|-----------------|
|
|  W             H     E E +Q
|-------------|-----------------|
|-------------|-----------------|
|-------------|-----------------|
|-------------|----------2-(2)--|
|--3----------|--5-----5--------|
|--1----------|--3-----3--------|
|
|  W             W
|--1----------|--3--------------|
|--1----------|--3--------------|
|--2----------|--4--------------|
|--3----------|--5--------------|
|--3----------|--5--------------|
|--1----------|--3--------------|


   E  E  +E   E  +H               Q    Q    Q      Q
|------------------------------|-----------------------|
|------------------------------|-----------------------|
|-16-14-(14)-14-(14)-----------|-----------------------|
|-14-14-(14)-14-(14)-----------|------------------14---|
|------------------------------|------14---15----------|
|------------------------------|-----------------------|
|
|  Q      E   E   S  S E +E  E    Q    E E  S S E +Q
|------------------------------|-----------------------|
|----------------------1-(1)-3-|----------------1-(1)--|
|--2------0---2--------0-(0)-2-|--2----0-2------0-(0)--|
|--2------0---2----------------|--2----0-2-------------|
|-----------------0--0---------|------------0-0--------|
|------------------------------|-----------------------|
|
|  W                             +W
|--5---------------------------|-(5)-------------------|
|--5---------------------------|-(5)-------------------|
|--5---------------------------|-(5)-------------------|
|--7---------------------------|-(7)-------------------|
|--7---------------------------|-(7)-------------------|
|--5---------------------------|-(5)-------------------|


   H     H       H     H       E  E  +E   E  +H        Q   Q   Q  Q
|-------------|-------------|-----------------------|----------------|
|-------------|-------------|-----------------------|----------------|
|-16----14----|-12----10----|-10--9--(9)--9--(9)----|-------------9--|
|-15----15----|-12----12----|-12-10-(10)-10-(10)----|------9--10-----|
|-------------|-------------|-----------------------|----------------|
|-------------|-------------|-----------------------|----------------|
|
| Gtrs II, III
|  W             W             W                      +W
|-------------|-------------|-----------------------|----------------|
|-------------|-------------|-----------------------|----------------|
|-------------|-------------|-----------------------|----------------|
|-------------|-------------|--5--------------------|-(5)------------|
|--3----------|--5----------|--3--------------------|-(3)------------|
|--1----------|--3----------|-----------------------|----------------|


  H    H      H     H      E E   +E    E   +H       +W
|-7----5----|-7-----8----|-7-5---(5)---5---(5)----|-(5)---------|
|-----------|-8----10----|------------------------|-------------|
|-----------|------------|------------------------|-------------|
|-----------|------------|------------------------|-------------|
|-----------|------------|------------------------|-------------|
|-----------|------------|------------------------|-------------|
|
| Gtr II
| W           H     H      E S S  E    S S +H       +H     H
|-----------|------------|------------------------|-------------|
|-----------|------------|------------------------|-------------|
|-----------|------------|------------------------|-------------|
|-----------|-------2----|------------------------|--------2----|
|-3---------|-5----------|-0-0-0--0----0-0-(0)----|-(0)---------|
|-1---------|-3----------|------------------------|-------------|
|
| Gtr III
| W           H     H      E S S  S  S E   +H       +H     H
|-1---------|-3----------|------------------------|-------------|
|-1---------|-3----------|-------------1---(1)----|-(1)---------|
|-2---------|-4----------|-------------0---(0)----|-(0)---------|
|-3---------|-5-----2----|------------------------|--------2----|
|-3---------|-5----------|-0-0-0--0--0------------|-------------|
|-1---------|-3----------|------------------------|-------------|


  Gtr II
  E S S S S E +H       +E  E E E Q  Q    E S S S S  E  +H        +H      H
|--------------------|-----------------|-----------15-(15)----|-(15)----------|
|-----------3-(3)----|-(3)-4-4-4-3--1--|----------------------|---------------|
|-----------2-(2)----|-(2)-3-3-3-2--0--|-----------12-(12)----|-(12)----------|
|--------------------|-----------------|----------------------|---------------|
|-0-0-0-0-0----------|-----------------|-0-0-0-0-0------------|---------------|
|--------------------|-----------------|----------------------|---------12----|
|
| Gtr III
| E S S S S E +H       +E  E E E Q  Q    E S S S S  E  +H        +H      H
|--------------------|-----------------|----------------------|---------------|
|--------------------|-----4-4-4-3--1--|------------1--(1)----|--(1)----------|
|--------------------|-----3-3-3-2--0--|------------0--(0)----|--(0)----------|
|--------------------|-----------------|----------------------|----------2----|
|-0-0-0-0-0-0-(0)----|-(0)-------------|-0-0-0-0-0------------|---------------|
|--------------------|-----------------|----------------------|---------------|


  S S S S S S  E  +H        E.  S  +S   E.  Q  Q
|------------------------|------------------------|
|------------------------|------------------------|
|------------------------|------------------------|
|-------------12-(12)----|-13--13-(13)-13--13-----|
|-0-0-0-0-0-0-12-(12)----|-13--13-(13)-13--13-----|
|------------------------|------------------------|
|
| S S S S S S  E  +H        E.  S  +S   E.  Q  Q
|------------------------|------------------------|
|--------------3--(3)----|--4---4--(4)--4---4-----|
|--------------2--(2)----|--3---3--(3)--3---3-----|
|------------------------|------------------------|
|-0-0-0-0-0-0------------|------------------------|
|------------------------|------------------------|


   E.  S  +S   E.  Q  Q    E  E S  E.  E.  S  +E   E
|------------------------|----------------------------|
|------------------------|----------------------------|
|------------------------|----------------------------|
|-13--13-(13)-13--13-----|---13---13--13--14-(14)-15--|
|-13--13-(13)-13--13-----|---13---13--13--14-(14)-15--|
|------------------------|----------------------------|
|
|  E.  S  +S   E.  Q  Q    E  E S  E.  E.  S  +E   E
|------------------------|----------------------------|
|--4---4--(4)--4---4-----|----4----4---4---5--(5)--6--|
|--3---3--(3)--3---3-----|----3----3---3---4--(4)--5--|
|------------------------|----------------------------|
|------------------------|----------------------------|
|------------------------|----------------------------|


   Q   E  E E  E  +E   E    Q    E  E E  E  +E   E
|------------------------|-------------------------|
|------------------------|-------------------------|
|-------------12-(12)-14-|--------------12-(12)-14-|
|-14--12-14---12-(12)-14-|-14---12-14---12-(12)-14-|
|-14--12-14--------------|-14---12-14--------------|
|------------------------|-------------------------|
|
|  W                       +W
|------------------------|-------------------------|
|--5---------------------|-(5)---------------------|
|--4---------------------|-(4)---------------------|
|------------------------|-------------------------|
|------------------------|-------------------------|
|------------------------|-------------------------|


   Q    E  E  E   E  E   E    +E   E  E  E  E  E  +E   E
|--------------------------|-----------------------------|
|--------------------------|-----------------------------|
|----------------12-13--14-|-(14)-12-14-12-14------------|
|-14---12-14-----12-13--14-|-(14)-12-14-12-14-12-(12)-13-|
|-14---12-14---------------|------------------12-(12)-13-|
|--------------------------|-----------------------------|
|
| +H         +E   E +E   E    +E   E  E  E  E  E  +E   E
|--------------------------|-----------------------------|
|-(5)--------(5)-----------|-----------------------------|
|-(4)--------(4)---------2-|--(2)--0--2--0--2------------|
|-----------------2-(2)--2-|--(2)--0--2--0--2--0--(0)--1-|
|--------------------------|-------------------0--(0)--1-|
|--------------------------|-----------------------------|


   Q   E  E E  E  +E   E    Q   E  E E  E  +E   E
|------------------------|------------------------|
|------------------------|------------------------|
|-------------12-(12)-14-|-------------12-(12)-14-|
|-14--12-14---12-(12)-14-|-14--12-14---12-(12)-14-|
|-14--12-14--------------|-14--12-14--------------|
|------------------------|------------------------|
|
|  Q   E  E E  E  +E   E    Q   E  E E  E  +E   E
|------------------------|--------------3--(3)--5-|
|------------------------|--5---3--5----3--(3)--5-|
|--------------0--(0)--2-|--4---2--4--------------|
|--2---0--2----0--(0)--2-|------------------------|
|--2---0--2--------------|------------------------|
|------------------------|------------------------|


   Q   E  E E  E  E  E    +E   E  E  E  E  E  +Q
|----------------------|---------------------------|
|----------------------|---------------------------|
|-------------12-13-14-|-(14)-12-14-12-14----------|
|-14--12-14---12-13-14-|-(14)-12-14-12-14-12-(12)--|
|-14--12-14------------|------------------12-(12)--|
|----------------------|---------------------------|
|
|  Q   E  E E  E  E  E    +E   E  E  E  E  E  +Q
|--------------3--4--5-|--(5)--3--5--3--5----------|
|--5---3--5----3--4--5-|--(5)--3--5--3--5----------|
|--4---2--4------------|-------------------7--(7)--|
|----------------------|-------------------7--(7)--|
|----------------------|---------------------------|
|----------------------|---------------------------|


   H     E  E  +E   E    H               E E +E   E   W                 +W
|---------------------|------------------8-7-(7)--8-|-7---------------|-(7)----|
|-------12-10-(10)-12-|-10--------------10-8-(8)-10-|-----------------|--------|
|-------12-11-(11)-12-|-11--------------------------|-----------------|--------|
|-14------------------|-----------------------------|-----------------|--------|
|-15------------------|-----------------------------|-----------------|--------|
|---------------------|-----------------------------|-----------------|--------|
|
|  W                     E.  S  +S   E.  E E  Q       Q.    E  +H        W
|---------------------|-----------------------------|-----------------|--------|
|---------------------|-----------------------------|-7----10-(10)----|--9-----|
|---------------------|-----------------------------|-7-----7--(7)----|--7-----|
|---------------------|--7---7--(7)--7---7----------|-9-----9--(9)----|--9-----|
|-10------------------|-----------------------------|-----------------|--------|
|--8------------------|-10--10-(10)-10--10----------|-----------------|--------|


  +W           +W                  +W                 +W
|-(7)--------|-(7)---------------|-(7)--------------|-(7)----|
|------------|-------------------|------------------|--------|
|------------|-------------------|------------------|--------|
|------------|-------------------|------------------|--------|
|------------|-------------------|------------------|--------|
|------------|-------------------|------------------|--------|
|
|  W           +E   E  +Q   H       Q.    E  +H        W
|------------|-------------------|------------------|--------|
|--7---------|-(7)-10-(10)--9----|--7----10-(10)----|--9-----|
|--7---------|-(7)--7--(7)--7----|--7-----7--(7)----|--7-----|
|--9---------|-(9)--9--(9)--9----|--9-----9--(9)----|--9-----|
|------------|-------------------|------------------|--------|
|------------|-------------------|------------------|--------|


  +W            H.             S S S S   W                 +H     E E E E
|-(7)--------|--7----------------------|-----------------|----------------|
|------------|-------------------------|-----------------|----------------|
|------------|-------------------------|-----------------|----------9-----|
|------------|-------------------------|-----------------|----------9-----|
|------------|-----------------0---0---|-9---------------|-(9)----------9-|
|------------|-----------------0---0---|-7---------------|-(7)----------7-|
|
|  W           +E   E  +Q   H            Q.    E  +H        W
|------------|-------------------------|-----------------|----------------|
|--7---------|-(7)-10-(10)--9----------|-7----10-(10)----|--9-------------|
|--7---------|-(7)--7--(7)--7----------|-7-----7--(7)----|--7-------------|
|--9---------|-(9)--9--(9)--9----------|-9-----9--(9)----|--9-------------|
|------------|-------------------------|-----------------|----------------|
|------------|-------------------------|-----------------|----------------|


  +W            E   E   E  E Q  S S S S   W                 +H     E E E E
|------------|--------------------------|-----------------|----------------|
|------------|------6---6--6-5----------|-----------------|----------5-----|
|------------|------5---5--5-4----------|-----------------|----------4-----|
|------------|------------------5---5---|-4---------------|-(4)----------4-|
|-(9)--------|------------------5---5---|-----------------|----------------|
|-(7)--------|--------------------------|-7---------------|-(7)----------7-|
|
|  W           +E   E  +Q    H            Q.    E  +H        W
|------------|--------------------------|-----------------|----------------|
|--7---------|-(7)-10-(10)---9----------|-7----10-(10)----|--9-------------|
|--7---------|-(7)--7--(7)---7----------|-7-----7--(7)----|--7-------------|
|--9---------|-(9)--9--(9)---9----------|-9-----9--(9)----|--9-------------|
|------------|--------------------------|-----------------|----------------|
|------------|--------------------------|-----------------|----------------|


  +W            E   E   E  E Q  S S S S   E E Q  Q  E E    E  E Q  Q  Q
|------------|--------------------------|---------------|----------------|
|------------|------6---6--6-5----------|---------------|----------------|
|------------|------5---5--5-4----------|---------------|----------------|
|-(4)--------|------------------5---5---|---------------|----------2--2--|
|------------|------------------5---5---|-4-4---------4-|-----4----0--0--|
|-(7)--------|--------------------------|-2-2---------2-|-----2----------|
|
|  W           +E   E  +Q    H            W               +W
|------------|--------------------------|-7-------------|-(7)------------|
|--7---------|-(7)-10-(10)---9----------|---------------|----------------|
|--7---------|-(7)--7--(7)---7----------|---------------|----------------|
|--9---------|-(9)--9--(9)---9----------|---------------|----------------|
|------------|--------------------------|---------------|----------------|
|------------|--------------------------|---------------|----------------|


   E  E Q  Q  E E    E  E Q   Q  Q     W                 +H     E E E E
|-----------------|-----------------|------------------|----------------|
|-----------------|-----------------|------------------|----------5-----|
|-----------------|-----------------|------------------|----------4-----|
|-----------------|-----------2--3--|--4---------------|-(4)----------4-|
|--4--4---------4-|-----4-----0--1--|--2---------------|-(2)------------|
|--2--2---------2-|-----2-----------|--





Comments


Popular X Japan tabs & chords
Art Of Life Bass Tabs
Art Of Life 2 Bass Tabs
Joker Bass Tabs
Kurenai Chords
Tears Chords
Art Of Life 1 Tabs
Ill Kill You Tabs
Iv Tabs
Last Song Tabs
Without You Intro Tabs


Song lyrics



↑ Back to top | Tablatures and chords are parodies/interpretations of the original songs. You may use it for private study, scholarship, research or language learning purposes only
© 2014 AZChords.com Contact us | Privacy policy | DMCA | Add/correct tabs | Request tabs | Top 50 tabs