>
 >
Dahlia 2

Dahlia 2 Bass Tabs

X Japan - Dahlia 2 chords, tabs, tablatures, lyrics

Guitar lessons | Add/correct | Request | Top 50 tabs Artists:  A B C D E F G H I J K L M N O P Q R S T U V W X Y Z 0-9

Dahlia 2 Bass Tabs – X Japan

CD, Sheet music, Poster

Do you like Dahlia 2? Share with your friends now
Bass TabsBass Tabs v2Tabs

DAHLIA (Bassline)
As recorded by X Japan


	



Gtr I (E A D G B E) - 'Yoshiki Left'
Gtr II (E A D G B E) - 'Yoshiki Right'
Gtr III (E A D G) - 'Picked Bass'

  Q=175
 4/4
  Gtr III
  E S S S S E +H       +W           E S S S S E +H       +H     E E +E  E
|--------------------|------------|--------------------|-------------------|
|-2-2-2-2-2----------|------------|-2-2-2-2-2-2-(2)----|-(2)------0-(0)-3--|
|--------------------|------------|--------------------|-------------------|
|-----------0-(0)----|-(0)--------|--------------------|--------0----------|


  E S S S S E +H       +E  E E E E E E E
|--------------------|-------------------|
|-2-2-2-2-2----------|-------------------|
|--------------------|---------0-5-------|
|-----------0-(0)----|-(0)-0-3-----7-5-3-|


  E S S S S E +Q   Q    +E  E +Q   +E  E +E  E
|---------------------|------------------------|
|-2-2-2-2-2-----------|-----2-(2)--(2)-0-(0)-0-|
|---------------------|------------------------|
|-----------0-(0)--0--|-(0)--------------------|


  Q  Q  H      W          W          W
|------------|----------|----------|------|
|-2----------|----------|----------|------|
|------------|----------|----------|------|
|------------|----------|----------|------|


                       3/4        4/4
  W          W          W          E E E E E E E E
|----------|----------|----------|-----------------|
|----------|----------|----------|-----------------|
|----------|----------|----------|-----------------|
|----------|----------|----------|-0-0-0-0-0-0-0-0-|


  E E E E E E E E   E E E E E E E E   E E E E E E E E   E E E E E E E E
|-----------------|-----------------|-----------------|-----------------|
|-----------------|-----------------|-----------------|-----------------|
|-----------------|-----------------|-4-4-4-4-5-5-5-5-|-----------------|
|-0-0-0-0-0-0-0-0-|-0-0-0-0-0-0-0-0-|-----------------|-0-0-0-0-0-0-0-0-|


  E E E E E E E E   E E E E E E E E   E E E E E E E E   E E E E E E E E
|-----------------|-----------------|-----------------|-----------------|
|-----------------|-----------------|-----------------|-----------------|
|-----------------|-----------------|-4-4-4-4-5-5-5-5-|-----------------|
|-0-0-0-0-0-0-0-0-|-0-0-0-0-0-0-0-0-|-----------------|-0-0-0-0-0-0-0-0-|


  E E E E E E E E   E E E E E E E E   E E E E E E E E   W
|-----------------|-----------------|-----------------|------|
|-----------------|-----------------|-----------------|------|
|-----------------|-----------------|-4-4-4-4-5-5-5-5-|-3----|
|-0-0-0-0-0-0-0-0-|-0-0-0-0-0-0-0-0-|-----------------|------|


  H    E E +E  E   Q  Q  H      W          W
|----------------|------------|----------|------|
|----------------|------------|----------|------|
|-5------5-(5)-6-|-7----------|----------|------|
|----------------|------------|----------|------|


  H    H      E E E E E E E E   E E E E E E E E   E E E E E E E E
|-----------|-----------------|-----------------|-----------------|
|-----------|-----------------|-----------------|-----------------|
|------7----|-----------------|-----------------|-----------------|
|-----------|-0-0-0-0-0-0-0-0-|-0-0-0-0-0-0-0-0-|-0-0-0-0-0-0-0-0-|


  E E E E E E +E  E   W          +W           +W
|-------------------|----------|------------|--------|
|-------------------|----------|------------|--------|
|-----------5-(5)-5-|-7--------|-(7)--------|-(7)----|
|-0-0-0-0-0---------|----------|------------|--------|


  +H     H      E E E E E E E E   E E E E E E E E   W
|-------------|-----------------|-----------------|------|
|-------------|-----------------|-----------------|------|
|-(7)----7----|-----------------|-----------------|------|
|-------------|-0-0-0-0-0-0-0-0-|-0-0-0-0-0-0-0-0-|-1----|


  Gtr I
  W          W                 +W                   W
|----------|-----------------|-------------------|-15---------------|
|----------|-5---------------|-(5)---------------|------------------|
|----------|-----------------|-------------------|------------------|
|----------|-----------------|-------------------|------------------|
|----------|-----------------|-------------------|------------------|
|----------|-----------------|-------------------|------------------|
|
| Gtr III
| W          E E E E E E E E    E  E E E E E E E    E E E E E E E E
|----------|-----------------|-------------------|------------------|
|----------|-----------------|-------------------|------------------|
|----------|-----------------|-------------------|------------------|
|-1--------|-1-1-1-1-1-1-1-1-|--1--1-1-1-1-1-1-1-|--1-1-1-1-1-1-1-1-|


   W                  W                  +W                   W
|------------------|------------------|--------------------|------------------|
|------------------|------------------|--------------------|------------------|
|------------------|------------------|--------------------|------------------|
|-17---------------|-15---------------|-(15)---------------|-17---------------|
|------------------|------------------|--------------------|------------------|
|------------------|------------------|--------------------|------------------|
|
| Gtr II
|  W                  W                   W                   W
|-10---------------|------------------|--12----------------|------------------|
|-12---------------|------------------|--13----------------|------------------|
|-12---------------|------------------|--14----------------|------------------|
|------------------|------------------|--------------------|------------------|
|------------------|------------------|--------------------|------------------|
|------------------|------------------|--------------------|------------------|
|
| Gtr III
|  E E E E E E E E    E E E E E E E E     E  E E E E E E E    E E E E E E E E
|------------------|------------------|--------------------|------------------|
|------------------|------------------|--------------------|------------------|
|------------------|------------------|--------------------|------------------|
|--1-1-1-1-1-1-1-1-|--1-1-1-1-1-1-1-1-|---1--1-1-1-1-1-1-1-|--3-3-3-3-3-3-3-3-|


   H        H          W                  +W                   W
|-------------------|------------------|--------------------|------------------|
|-------------------|------------------|--------------------|-12---------------|
|-16----------------|------------------|--------------------|------------------|
|----------15-------|-14---------------|-(14)---------------|------------------|
|-------------------|------------------|--------------------|------------------|
|-------------------|------------------|--------------------|------------------|
|
|  W                   W                   W                   W
|-15----------------|------------------|--------------------|------------------|
|-15----------------|------------------|--17----------------|------------------|
|-16----------------|------------------|--19----------------|------------------|
|-------------------|------------------|--18----------------|------------------|
|-------------------|------------------|--------------------|------------------|
|-------------------|------------------|--------------------|------------------|
|
|  E E E E  E E E E    E E E E E E E E     E  E E E E E E E    E E E E E E E E
|-------------------|------------------|--------------------|------------------|
|-------------------|------------------|--------------------|------------------|
|-------------------|------------------|--------------------|------------------|
|--3-3-3-3--3-3-3-3-|--4-4-4-4-4-4-4-4-|---4--4-4-4-4-4-4-4-|--5-5-5-5-5-5-5-5-|


   W                  W                  H        H         W
|------------------|------------------|-------------------|-----------------|
|-10---------------|------------------|-------------------|-8---------------|
|------------------|-10---------------|--9-------10-------|-----------------|
|------------------|------------------|-------------------|-----------------|
|------------------|------------------|-------------------|-----------------|
|------------------|------------------|-------------------|-----------------|
|
|  W                  W                  W                  W
|-17---------------|------------------|-17----------------|-----------------|
|-17---------------|------------------|-18----------------|-----------------|
|-17---------------|------------------|-------------------|-----------------|
|------------------|------------------|-19----------------|-----------------|
|------------------|------------------|-------------------|-----------------|
|------------------|------------------|-------------------|-----------------|
|
|  E E E E E E E E    E E E E E E E E    E E E E  E E E E   E E E E E E E E
|------------------|------------------|-------------------|-----------------|
|------------------|------------------|-------------------|-----------------|
|------------------|------------------|-------------------|-----------------|
|--5-5-5-5-5-5-5-5-|--1-1-1-1-1-1-1-1-|--1-1-1-1--1-1-1-1-|-3-3-3-3-3-3-3-3-|


   W                   W                 H       H         H       H
|--7-----------------|-8---------------|-8-------7-------|-7-------5-------|
|--------------------|-----------------|-----------------|-----------------|
|--------------------|-----------------|-----------------|-----------------|
|--------------------|-----------------|-----------------|-----------------|
|--------------------|-----------------|-----------------|-----------------|
|--------------------|-----------------|-----------------|-----------------|
|
|  W                   W                 W                 W
|--------------------|-----------------|-----------------|-----------------|
|-20-----------------|-----------------|-----------------|-----------------|
|-19-----------------|-----------------|-----------------|-----------------|
|-17-----------------|-----------------|-----------------|-----------------|
|--------------------|-----------------|-----------------|-----------------|
|--------------------|-----------------|-----------------|-----------------|
|
|  E E E E E E +E  E   E E E E E E E E   E E E E E E E E   E E E E E E E E
|--------------------|-----------------|-----------------|-----------------|
|--------------------|-----------------|-----------------|-----------------|
|------------2-(2)-2-|-3-3-3-3-3-3-3-3-|-2-2-2-2-2-2-2-2-|-0-0-0-0-0-0-0-0-|
|--3-3-3-3-3---------|-----------------|-----------------|-----------------|


  +H        E E +Q      W
|-(5)---------3-(3)---|-1---------------|
|---------------------|-----------------|
|---------------------|-----------------|
|---------------------|-----------------|
|---------------------|-----------------|
|---------------------|-----------------|
|
| Gtr III
|  E  E E E E E +E  E   E E E E E E E E
|---------------------|-----------------|
|---------------------|-----------------|
|--0--0-0-0-0---------|-----------------|
|-------------3-(3)-3-|-1-1-1-1-1-1-1-1-|


  +W                    W
|-(1)-----------------|-3---------------|
|---------------------|-----------------|
|---------------------|-----------------|
|---------------------|-----------------|
|---------------------|-----------------|
|---------------------|-----------------|
|
|  E  E E E E E +E  E   E E E E E E E E
|---------------------|-----------------|
|--0--0-0-0-0-------0-|-----------------|
|-------------0-(0)---|-----------------|
|---------------------|-3-3-3-3-3-3-3-3-|


  +W                W                 W                 W
|-(3)-------------|-----------------|-----------------|-----------------|
|-----------------|-----------------|-----------------|-----------------|
|-----------------|-----------------|-----------------|-----------------|
|-----------------|-----------------|-----------------|-----------------|
|-----------------|-----------------|-----------------|-----------------|
|-----------------|-----------------|-----------------|-----------------|
|
|  E  E E E Q  Q    E E E E E E E E   E E E E E E E E   E E E E E E E E
|-----------------|-----------------|-----------------|-----------------|
|-----------------|-----------------|-----------------|-----------------|
|-----------------|-----------------|-----------------|-----------------|
|--3--3-3-3-3--4--|-5-5-5-5-5-5-5-5-|-5-5-5-5-5-5-5-5-|-5-5-5-5-5-5-5-5-|


  Gtr III
  E E E E E E E E   E E E E E E E E   E E E E E E E E   E E E E E E E E
|-----------------|-----------------|-----------------|-----------------|
|-----------------|-----------------|-----------------|-----------------|
|-----------------|-0-0-0-0-0-0-0-0-|-0-0-0-0-0-0-0-0-|-0-0-0-0-0-0-0-0-|
|-1-1-1-1-1-1-1-1-|-----------------|-----------------|-----------------|


  E E E E E E E E   E E E E E E E E   E E E E E E E E   E E E E E E E E
|-----------------|-----------------|-----------------|-----------------|
|-----------------|-----------------|-----------------|-----------------|
|-----------------|-----------------|-----------------|-----------------|
|-1-1-1-1-1-1-1-1-|-1-1-1-1-1-1-1-1-|-1-1-1-1-1-1-1-1-|-1-1-1-1-1-1-1-1-|


  E E E E E E E E   E E E E E E E E   E E E E E E E E   E E E E E E E E
|-----------------|-----------------|-----------------|-----------------|
|-----------------|-----------------|-----------------|-----------------|
|-----------------|-0-0-0-0-0-0-0-0-|-0-0-0-0-0-0-0-0-|-0-0-0-0-0-0-0-0-|
|-1-1-1-1-1-1-1-1-|-----------------|-----------------|-----------------|


  E E E E E E +E  E   E E E E E E E E   E E E E E E E E   E E E E E E E E
|-------------------|-----------------|-----------------|-----------------|
|-------------------|-----------------|-----------------|-----------------|
|-0-0-0-0-0-------0-|-----------------|-----------------|-----------------|
|-----------3-(3)---|-1-1-1-1-1-1-1-1-|-1-1-1-1-1-1-1-1-|-1-1-1-1-1-1-1-1-|


  Gtr I
  W                 W                 H       H           W
|-----------------|-----------------|---------1---------|-0---------------|
|-----------------|-----------------|-3-----------------|-----------------|
|-----------------|-----------------|-------------------|-----------------|
|-----------------|-----------------|-------------------|-----------------|
|-----------------|-----------------|-------------------|-----------------|
|-----------------|-----------------|-------------------|-----------------|
|
| Gtr III
| E E E E E E E E   E E E E E E E E   E E E E E E +E  E   E E E E E E E E
|-----------------|-----------------|-------------------|-----------------|
|-----------------|-----------------|-------------------|-----------------|
|-----------------|-----------------|-----------2-(2)-2-|-3-3-3-3-3-3-3-3-|
|-1-1-1-1-1-1-1-1-|-3-3-3-3-3-3-3-3-|-3-3-3-3-3---------|-----------------|


  H       H         W                 H       H           W
|---------3-------|-5---------------|-5-------7---------|-8---------------|
|-0---------------|-----------------|-------------------|-----------------|
|-----------------|-----------------|-------------------|-----------------|
|-----------------|-----------------|-------------------|-----------------|
|-----------------|-----------------|-------------------|-----------------|
|-----------------|-----------------|-------------------|-----------------|
|
| E E E E E E E E   E E E E E E E E   E E E E E E +E  E   E E E E E E E E
|-----------------|-----------------|-------------------|-----------------|
|-----------------|-----------------|-------------------|-----------------|
|-2-2-2-2-2-2-2-2-|-0-0-0-0-0-0-0-0-|-0-0-0-0-0---------|-----------------|
|-----------------|-----------------|-----------3-(3)-3-|-1-1-1-1-1-1-1-1-|


  +H         H          W
|-(8)-------13-------|------------------|
|--------------------|-15---------------|
|--------------------|------------------|
|--------------------|------------------|
|--------------------|------------------|
|--------------------|------------------|
|
|  E  E E E  E E E E    E E E E E E E E
|--------------------|------------------|
|--------------------|------------------|
|--------------------|------------------|
|--1--1-1-1--1-1-1-1-|--3-3-3-3-3-3-3-3-|


   +H         H            W
|------------15---------|------------------|
|-(15)------------------|-17---------------|
|-----------------------|------------------|
|-----------------------|------------------|
|-----------------------|------------------|
|-----------------------|------------------|
|
|   E  E E E  E E +E  E    E E E E E E E E
|-----------------------|------------------|
|-----------------------|------------------|
|---------------2-(2)-2-|--3-3-3-3-3-3-3-3-|
|---3--3-3-3--3---------|------------------|


   +W                   +W
|--------------------|--------------------|
|-(17)---------------|-(17)---------------|
|--------------------|--------------------|
|--------------------|--------------------|
|--------------------|--------------------|
|--------------------|--------------------|
|
|   E  E E E E E E E     E  E E E E E E E
|--------------------|--------------------|
|--------------------|--------------------|
|---2--2-2-2-2-2-2-2-|---0--0-0-0-0-0-0-0-|
|--------------------|--------------------|


   +W                     W
|----------------------|------------------|
|-(17)-----------------|-18---------------|
|----------------------|------------------|
|----------------------|------------------|
|----------------------|------------------|
|----------------------|------------------|
|
|   E  E E E E E +E  E    E E E E E E E E
|----------------------|------------------|
|----------------------|------------------|
|---0--0-0-0-0---------|------------------|
|--------------3-(3)-3-|--1-1-1-1-1-1-1-1-|


   +W                     W
|----------------------|------------------|
|-(18)-----------------|-20---------------|
|----------------------|------------------|
|----------------------|------------------|
|----------------------|------------------|
|----------------------|------------------|
|
|   E  E E E E E +E  E    E E E E E E E E
|----------------------|------------------|
|---0--0-0-0-0-------0-|------------------|
|--------------0-(0)---|------------------|
|----------------------|--3-3-3-3-3-3-3-3-|


   +H         Q   Q     W
|--------------------|-----------------------------|
|-(20)-------20--18--|-17--------------------------|
|--------------------|-----------------------------|
|--------------------|-----------------------------|
|--------------------|-----------------------------|
|--------------------|-----------------------------|
|
|   E  E E E  Q   Q     E S S S S E S S S S E S S
|--------------------|-----------------------------|
|--------------------|-----------------------------|
|--------------------|-----------------------------|
|---3--3-3-3--3---1--|--0-0-0-0-0-0-0-0-0-0-0-0-0--|


   E E Q  H       W                  W                  H        E  E  Q
|--------------|------------------|------------------|---------------------|
|-17-----------|------------------|-15---------------|-17-------------17---|
|--------------|-17---------------|------------------|-------------17------|
|--------------|------------------|------------------|----------17---------|
|--------------|------------------|------------------|---------------------|
|--------------|------------------|------------------|---------------------|
|
|  Q   Q  H       E E E E E E E E    E E E E E E E E    E E E E  E  E  E E
|--------------|------------------|------------------|---------------------|
|--------------|------------------|------------------|---------------------|
|--------------|------------------|------------------|--3-3-3-3--3--3--3-3-|
|--0-----------|--1-1-1-1-1-1-1-1-|--3-3-3-3-3-3-3-3-|---------------------|


   W                  W                  W                  W
|-15---------------|-13---------------|------------------|------------------|
|------------------|------------------|-15---------------|-17---------------|
|------------------|------------------|------------------|------------------|
|------------------|------------------|------------------|------------------|
|------------------|------------------|------------------|------------------|
|------------------|------------------|------------------|------------------|
|
|  E E E E E E E E    E E E E E E E E    E E E E E E E E    E E E E E E E E
|------------------|------------------|------------------|------------------|
|------------------|------------------|------------------|------------------|
|--3-3-3-3-3-2-0---|------------------|------------------|--0-0-0-0-0-0-0-0-|
|----------------3-|--1-1-1-1-1-1-1-1-|--3-3-3-3-3-3-3-3-|------------------|


   +H.            Q       H        H
|----------------17----|-15-------13-------|
|-(17)-----------------|-------------------|
|----------------------|-------------------|
|----------------------|-------------------|
|----------------------|-------------------|
|----------------------|-------------------|
|
|   E  E E E E E +E  E    E E E E  E E E E
|----------------------|-------------------|
|----------------------|-------------------|
|---0--0-0-0-0---------|-------------------|
|--------------3-(3)-3-|--1-1-1-1--1-1-1-1-|


   H        H          H        E  E  Q
|-------------------|---------------------|
|-15----------------|-17-------------17---|
|----------16-------|-------------17------|
|-------------------|----------17---------|
|-------------------|---------------------|
|-------------------|---------------------|
|
|  E E E E  E E E E    E E E E  E  E  E E
|-------------------|---------------------|
|-------------------|---------------------|
|-------------------|--3-3-3-3--3--3--3-3-|
|--3-3-3-3--3-3-3-3-|---------------------|


   W                  W                  W                 W
|-15---------------|-13---------------|-15---------------|--------------------|
|------------------|------------------|------------------|--------------------|
|------------------|------------------|------------------|--------------------|
|------------------|------------------|------------------|--------------------|
|------------------|------------------|------------------|--------------------|
|------------------|------------------|------------------|--------------------|
|
|  E E E E E E E E    E E E E E E E E    E E E E E E E E   E S S S S E +H
|------------------|------------------|------------------|--------------------|
|------------------|------------------|------------------|--------------------|
|--3-3-3-3-3-2-0---|------------------|------------------|-0-0-0-0-0-0-(0)----|
|----------------3-|--1-1-1-1-1-1-1-1-|--3-3-3-3-3-2-3-3-|--------------------|


  Gtr III
  +W           E S S S S E +E  E E E   +E  E E E Q  Q    E S S S S E +H
|------------|-----------------------|-----------------|--------------------|
|------------|-----------------------|-----------------|--------------------|
|-(0)--------|-0-0-0-0-0-0-(0)-0-3-5-|-(5)-6-6-6-5--3--|-0-0-0-0-0-0-(0)----|
|------------|-----------------------|-----------------|--------------------|


  Q  Q  Q  Q    S S S S S S E +E  E Q
|-2--2--2--2--|-------------------2-0--|
|-------------|------------------------|
|-------------|-0-0-0-0-0-0-0-(0)------|
|-------------|------------------------|


  E. S +S  E. Q  Q    E. S +S  E. Q  Q
|-------------------|--------------------|
|-0--0-(0)-0--0-----|-0--0-(0)-0--0------|
|-------------------|--------------------|
|-------------------|--------------------|


  E E S E. E. S +E  E   W          +W           +W
|---------------------|----------|------------|--------|
|---1---1--1--2-(2)-3-|-2--------|-(2)--------|-(2)----|
|---------------------|----------|------------|--------|
|---------------------|----------|------------|--------|


  E E E E E E E E   W          +W           +W
|-----------------|----------|------------|--------|
|-----------------|----------|------------|--------|
|-4-4-4-4-5-5-5-5-|-7--------|-(7)--------|-(7)----|
|-----------------|----------|------------|--------|


  E E E E  E  E  E  E   W
|---------------------|----------|
|---------------------|----------|
|---------------------|----------|
|-9-9-9-9-10-10-10-10-|-8--------|


   E.  S  +S   E.  Q  Q    E  E  +E   E  +E   E Q
|------------------------|-------------------------|
|------------------------|-------------------------|
|------------------------|-0--------------------2--|
|-10--10-(10)-10--10-----|---12-(12)-10-(10)-12----|


  E E +E  E +E  E E E   E E +E  E +E  E Q
|---------------------|--------------------|
|---------0-(0)-0-0-2-|---2-(2)-0-(0)-2----|
|-0-2-(2)-------------|-0---------------2--|
|---------------------|--------------------|


  E E +E  E +E  E E E   E E +E  E +E  E Q
|---------------------|--------------------|
|---------0-(0)-0-0-2-|---2-(2)-0-(0)-2----|
|-0-2-(2)-------------|-0---------------2--|
|---------------------|--------------------|


  E E +E  E +E  E E E   E E +E  E +E  E Q
|---------------------|--------------------|
|---------0-(0)-0-0-2-|---2-(2)-0-(0)-2----|
|-0-2-(2)-------------|-0---------------2--|
|---------------------|--------------------|


  E E +E  E +E  E E E   E E +E  E +E  E Q
|---------------------|--------------------|
|---------0-(0)-0-0-2-|---2-(2)-0-(0)-2----|
|-0-2-(2)-------------|-0---------------2--|
|---------------------|--------------------|


  E E +E  E +E  E E E   E E +E  E +E  E Q
|---------------------|--------------------|
|---------0-(0)-0-0-2-|---2-(2)-0-(0)-2----|
|-0-2-(2)-------------|-0---------------2--|
|---------------------|--------------------|


  E E +E  E +E  E E E   E E +E  E +E  E Q
|---------------------|--------------------|
|---------0-(0)-0-0-2-|---2-(2)-0-(0)-2----|
|-0-2-(2)-------------|-0---------------2--|
|---------------------|--------------------|


  E E +E  E +E  E E E   E E +E  E +E  E Q
|---------------------|--------------------|
|---------0-(0)-0-0-2-|---2-(2)-0-(0)-2----|
|-0-2-(2)-------------|-0---------------2--|
|---------------------|--------------------|


  E E +E  E +E  E E E   E E Q  Q  E E
|---------------------|---------------|
|---------0-(0)-0-0-2-|---------------|
|-0-2-(2)-------------|---------------|
|---------------------|-3-3---------3-|


  E E Q  Q  Q    E E Q  Q  E E   E E Q  Q  Q    E E +E  E +E  E E E
|--------------|---------------|--------------|---------------------|
|--------------|---------------|--------------|---0-(0)-2-(2)-------|
|--------0--0--|---------------|--------0--1--|-2---------------0-2-|
|---3----------|-2-2---------2-|---2----------|---------------2-----|


  E E +E  E +E  E E E   E E +E  E +E  E E E
|---------------------|---------------------|
|---------0-(0)-0-0-2-|---0-(0)-2-(2)-------|
|-0-2-(2)-------------|-2---------------0-2-|
|---------------------|---------------2-----|


  E E +E  E +E  E E E   E E Q  Q  E E
|---------------------|---------------|
|---------0-(0)-0-0-2-|---------------|
|-0-2-(2)-------------|---------------|
|---------------------|-2-2---------2-|


  E E Q  Q  Q    E E Q  Q  E E   E E Q  Q  Q    E E Q  Q  E E
|--------------|---------------|--------------|---------------|
|--------------|---------------|--------------|---------------|
|--------0--0--|---------------|--------------|---------------|
|---2----------|-2-2---------2-|---2----0--1--|-2-2---------2-|


  E E Q  Q  Q    E E Q  Q  E E   E E Q  Q  Q    Q  E E +H
|--------------|---------------|--------------|---------------|
|--------------|---------------|--------------|---------------|
|--------0--0--|---------------|--------0--1--|-2--2-2-(2)----|
|---2----------|-2-2---------2-|---2----------|---------------|


  +W           W          W          Q  E E +H
|------------|----------|----------|---------------|
|------------|----------|----------|---------------|
|-(2)--------|----------|-0--------|-2--2-2-(2)----|
|------------|-3--------|----------|---------------|


  +W           W          E. S +S  E. H
|------------|----------|------------------|
|------------|----------|------------------|
|-(2)--------|----------|-0--0-(0)-0-------|
|------------|-3--------|------------------|


  Gtr I
   W                              H              H
|------------------------------|-------------------------------|
|------------------------------|-------------------------------|
|------------------------------|-------------------------------|
|-14---------------------------|-14-------------12-------------|
|------------------------------|-------------------------------|
|------------------------------|-------------------------------|
|
| Gtr III
|  E S S S S S S E S S S S S S    E S S S S S S  E S S S S S S
|------------------------------|-------------------------------|
|------------------------------|-------------------------------|
|------------------------------|-------------------------------|
|--1-1-1-1-1-1-1-1-1-1-1-1-1-1-|--3-3-3-3-3-3-3--3-3-3-3-3-3-3-|


   W                              +H               H
|------------------------------|---------------------------------|
|------------------------------|---------------------------------|
|------------------------------|---------------------------------|
|-10---------------------------|-(10)-------------12-------------|
|------------------------------|---------------------------------|
|------------------------------|---------------------------------|
|
|  E S S S S S S E S S S S S S     E  S S S S S S  E S S S S S S
|------------------------------|---------------------------------|
|------------------------------|---------------------------------|
|--3-3-3-3-3-3-3-3-3-3-3-3-3-3-|---3--3-3-3-3-3-3--3-3-3-3-3-3-3-|
|------------------------------|---------------------------------|


   W                              W
|------------------------------|------------------------------|
|------------------------------|------------------------------|
|------------------------------|------------------------------|
|-10---------------------------|------------------------------|
|------------------------------|-10---------------------------|
|------------------------------|------------------------------|
|
|  E S S S S S S E S S S S S S    E S S S S S S E S S S S S S
|------------------------------|------------------------------|
|------------------------------|------------------------------|
|------------------------------|------------------------------|
|--1-1-1-1-1-1-1-1-1-1-1-1-1-1-|--3-3-3-3-3-3-3-3-3-3-3-3-3-3-|


   W                              +H               H
|------------------------------|---------------------------------|
|------------------------------|---------------------------------|
|------------------------------|---------------------------------|
|-10---------------------------|-(10)-------------12-------------|
|------------------------------|---------------------------------|
|------------------------------|---------------------------------|
|
|  E S S S S S S E S S S S S S     E  S S S S S S  E S S S S S S
|------------------------------|---------------------------------|
|------------------------------|---------------------------------|
|--0-0-0-0-0-0-0-0-0-0-0-0-0-0-|---0--0-0-0-0-0-0--0-0-0-0-0-0-0-|
|------------------------------|---------------------------------|


   W                                W
|--------------------------------|---------------------------------|
|--------------------------------|---------------------------------|
|--------------------------------|---------------------------------|
|-12-----------------------------|-10------------------------------|
|--------------------------------|---------------------------------|
|--------------------------------|---------------------------------|
|
|  E S S S S S S S S S S S S S S    E S S S S S S S S S S S S S S
|--------------------------------|---------------------------------|
|--------------------------------|---------------------------------|
|--1-1-1-1-1-1-1-1-1-1-1-1-1-1-1-|--3-3-3-3-3-3-3-3-3-3-3-3-3-3-3--|
|--------------------------------|---------------------------------|


   W                                +H                 H
|--------------------------------|------------------------------------|
|--------------------------------|------------------------------------|
|--------------------------------|------------------------------------|
|--------------------------------|--------------------10--------------|
|-12-----------------------------|-(12)-------------------------------|
|--------------------------------|------------------------------------|
|
|  E S S S S S S S S S S S S S S     S  S S S S S S S  E S S S S S S
|--------------------------------|------------------------------------|
|--------------------------------|------------------------------------|
|--------------------------------|-----------------------0-0-0-0-0-0--|
|--1-1-1-1-1-1-1-1-1-1-1-1-1-1-1-|---1--1-1-1-1-1-1-1--1--------------|


  W                                W
|-------------------------------|---------------------------------|
|-------------------------------|---------------------------------|
|-------------------------------|---------------------------------|
|-9-----------------------------|-10------------------------------|
|-------------------------------|---------------------------------|
|-------------------------------|---------------------------------|
|
| E S S S S S S S S S S S S S S    E S S S S S S S S S S S S S S
|-------------------------------|---------------------------------|
|-------------------------------|---------------------------------|
|-1-1-1-1-1-1-1-1-1-1-1-1-1-1-1-|--3-3-3-3-3-3-3-3-3-3-3-3-3-3-3--|
|-------------------------------|---------------------------------|


   E E   E    E Q        E E     E    E Q        Q   Q    W
|------------------------------|------------------------|------------|
|------------------------------|------------------------|------------|
|------------------------------|------------------------|------------|
|-12---------12---------12-----|-----12---------12--13--|------------|
|------------------------------|------------------------|------------|
|------------------------------|------------------------|------------|
|
|  E S S S S  E S S S S  E S S   S S  E S S S S  Q   Q    Q  Q  H
|------------------------------|------------------------|------------|
|------------------------------|------------------------|------------|
|--5-5-5-5-5--5-5-5-5-5--5-5-5-|-5-5--5-5-5-5-5--5---6--|-7----------|
|------------------------------|------------------------|------------|


  Gtr III
  W          W          H    H      E E E E E E E E
|----------|----------|-----------|-----------------|
|----------|----------|-----------|-----------------|
|----------|----------|------7----|-----------------|
|----------|----------|-----------|-0-0-0-0-0-0-0-0-|


  E E E E E E E E   E E E E E E E E   E E E E E E +E  E   W
|-----------------|-----------------|-------------------|------|
|-----------------|-----------------|-------------------|------|
|-----------------|-----------------|-----------5-(5)-5-|-7----|
|-0-0-0-0-0-0-0-0-|-0-0-0-0-0-0-0-0-|-0-0-0-0-0---------|------|


  +W           +W           +H     H      E E E E E E E E
|------------|------------|-------------|-----------------|
|------------|------------|-------------|-----------------|
|-(7)--------|-(7)--------|-(7)----7----|-----------------|
|------------|------------|-------------|-0-0-0-0-0-0-0-0-|


  Gtr I
  W                 W          W           W
|-----------------|----------|----------|------------------|
|-----------------|----------|----------|------------------|
|-----------------|----------|----------|------------------|
|-----------------|----------|----------|-14---------------|
|-----------------|----------|----------|------------------|
|-----------------|----------|----------|------------------|
|
| Gtr III
| E E E E E E E E   W          W           E E E E E E E E
|-----------------|----------|----------|------------------|
|-----------------|----------|----------|------------------|
|-----------------|----------|----------|------------------|
|-0-0-0-0-0-0-0-0-|-1--------|-1--------|--1-1-1-1-1-1-1-1-|


   +W                   W                  W                  W
|--------------------|-15---------------|------------------|------------------|
|--------------------|------------------|------------------|------------------|
|--------------------|------------------|------------------|------------------|
|-(14)---------------|------------------|-17---------------|-15---------------|
|--------------------|------------------|------------------|------------------|
|--------------------|------------------|------------------|------------------|
|
| Gtr II
|   W                   W                  W                  W
|--------------------|------------------|------------------|------------------|
|--------------------|------------------|-15---------------|------------------|
|--------------------|------------------|-16---------------|------------------|
|--------------------|------------------|-17---------------|------------------|
|--------------------|------------------|------------------|------------------|
|--------------------|------------------|------------------|------------------|
|
| Gtr III
|   E  E E E E E E E    E E E E E E E E    E E E E E E E E    E E E E E E E E
|--------------------|------------------|------------------|------------------|
|--------------------|------------------|------------------|------------------|
|--------------------|------------------|------------------|------------------|
|---1--1-1-1-1-1-1-1-|--1-1-1-1-1-1-1-1-|--1-1-1-1-1-1-1-1-|--1-1-1-1-1-1-1-1-|


   +W                   W                  H        H          W
|--------------------|------------------|-------------------|------------------|
|--------------------|------------------|-------------------|------------------|
|--------------------|------------------|-16----------------|------------------|
|-(15)---------------|-17---------------|----------15-------|-14---------------|
|--------------------|------------------|-------------------|------------------|
|--------------------|------------------|-------------------|------------------|
|
|   W                   W                  W                   W
|--------------------|------------------|-15----------------|------------------|
|--17----------------|------------------|-15----------------|------------------|
|--17----------------|------------------|-16----------------|------------------|
|--19----------------|------------------|-------------------|------------------|
|--------------------|------------------|-------------------|------------------|
|--------------------|------------------|-------------------|------------------|
|
|   E  E E E E E E E    E E E E E E E E    E E E E  E E E E    E E E E E E E E
|--------------------|------------------|-------------------|------------------|
|--------------------|------------------|-------------------|------------------|
|--------------------|------------------|-------------------|------------------|
|---1--1-1-1-1-1-1-1-|--3-3-3-3-3-3-3-3-|--3-3-3-3--3-3-3-3-|--4-4-4-4-4-4-4-4-|


   +W                   W                  W                  W
|--------------------|------------------|------------------|------------------|
|--------------------|-12---------------|-10---------------|------------------|
|--------------------|------------------|------------------|-10---------------|
|-(14)---------------|------------------|------------------|------------------|
|--------------------|------------------|------------------|------------------|
|--------------------|------------------|------------------|------------------|
|
|   W                   W                  W                  W
|--------------------|------------------|-17---------------|------------------|
|--17----------------|------------------|-17---------------|------------------|
|--19----------------|------------------|-17---------------|------------------|
|--18----------------|------------------|------------------|------------------|
|--------------------|------------------|------------------|------------------|
|--------------------|------------------|------------------|------------------|
|
|   E  E E E E E E E    E E E E E E E E    E E E E E E E E    E E E E E E E E
|--------------------|------------------|------------------|------------------|
|--------------------|------------------|------------------|------------------|
|--------------------|------------------|------------------|------------------|
|---4--4-4-4-4-4-4-4-|--5-5-5-5-5-5-5-5-|--5-5-5-5-5-5-5-5-|--1-1-1-1-1-1-1-1-|


   H        H         W                  W                    W
|-------------------|-----------------|--------------------|-12---------------|
|-------------------|-8---------------|--------------------|------------------|
|--9-------10-------|-----------------|--7-----------------|------------------|
|-------------------|-----------------|--------------------|------------------|
|-------------------|-----------------|--------------------|------------------|
|-------------------|-----------------|--------------------|------------------|
|
|  W                  W                  W                    W
|-17----------------|-----------------|-15-----------------|------------------|
|-18----------------|-----------------|-15-----------------|------------------|
|-------------------|-----------------|-16-----------------|------------------|
|-19----------------|-----------------|--------------------|------------------|
|-------------------|-----------------|--------------------|------------------|
|-------------------|-----------------|--------------------|------------------|
|
|  E E E E  E E E E   E E E E E E E E    E E E E E E +E  E    E E E E E E E E
|-------------------|-----------------|--------------------|------------------|
|-------------------|-----------------|--------------------|------------------|
|-------------------|-----------------|------------2-(2)-2-|--3-3-3-3-3-3-3-3-|
|--1-1-1-1--1-1-1-1-|-3-3-3-3-3-3-3-3-|--3-3-3-3-3---------|------------------|


   +W                   +W
|-(12)---------------|-(12)---------------|
|--------------------|--------------------|
|--------------------|--------------------|
|--------------------|--------------------|
|--------------------|--------------------|
|--------------------|--------------------|
|
| Gtr III
|   E  E E E E E E E     E  E E E E E E E
|--------------------|--------------------|
|--------------------|--------------------|
|---2--2-2-2-2-2-2-2-|---0--0-0-0-0-0-0-0-|
|--------------------|--------------------|


   +W                     W
|-(12)-----------------|-13---------------|
|----------------------|------------------|
|----------------------|------------------|
|----------------------|------------------|
|----------------------|------------------|
|----------------------|------------------|
|
|   E  E E E E E +E  E    E E E E E E E E
|----------------------|------------------|
|----------------------|------------------|
|---0--0-0-0-0---------|------------------|
|--------------3-(3)-3-|--1-1-1-1-1-1-1-1-|


   +W                     W
|-(13)-----------------|-15---------------|
|----------------------|------------------|
|----------------------|------------------|
|----------------------|------------------|
|----------------------|------------------|
|----------------------|------------------|
|
|   E  E E E E E +E  E    E E E E E E E E
|----------------------|------------------|
|---0--0-0-0-0-------0-|------------------|
|--------------0-(0)---|------------------|
|----------------------|--3-3-3-3-3-3-3-3-|


   +H         Q   Q     W
|-(15)-------15--13--|-12--------------------------|
|--------------------|-----------------------------|
|--------------------|-----------------------------|
|--------------------|-----------------------------|
|--------------------|-----------------------------|
|--------------------|-----------------------------|
|
|   E  E E E  Q   Q     E S S S S E S S S S E S S
|--------------------|-----------------------------|
|--------------------|-----------------------------|
|--------------------|-----------------------------|
|---3--3-3-3--3---1--|--0-0-0-0-0-0-0-0-0-0-0-0-0--|


   E E Q  H       W                  W                  H        E  E  Q
|-12-----------|------------------|------------------|---------------------|
|--------------|-13---------------|-15---------------|-17-------------17---|
|--------------|------------------|------------------|-------------17------|
|--------------|------------------|------------------|----------17---------|
|--------------|------------------|------------------|---------------------|
|--------------|------------------|------------------|---------------------|
|
|  Q   Q  H       E E E E E E E E    E E E E E E E E    E E E E  E  E  E E
|--------------|------------------|------------------|---------------------|
|--------------|------------------|------------------|---------------------|
|--------------|------------------|------------------|--3-3-3-3--3--3--3-3-|
|--0-----------|--1-1-1-1-1-1-1-1-|--3-3-3-3-3-3-3-3-|---------------------|


   W                  W                  W                  W
|-15---------------|-13---------------|------------------|------------------|
|------------------|------------------|-15---------------|-17---------------|
|------------------|------------------|------------------|------------------|
|------------------|------------------|------------------|------------------|
|------------------|------------------|------------------|------------------|
|------------------|------------------|------------------|------------------|
|
|  E E E E E E E E    E E E E E E E E    E E E E E E E E    E E E E E E E E
|------------------|------------------|------------------|------------------|
|------------------|------------------|------------------|------------------|
|--3-3-3-3-3-2-0---|------------------|------------------|--0-0-0-0-0-0-0-0-|
|----------------3-|--1-1-1-1-1-1-1-1-|--3-3-3-3-3-3-3-3-|------------------|


   +H.            Q       H        H
|----------------17----|-15-------13-------|
|-(17)-----------------|-------------------|
|----------------------|-------------------|
|----------------------|-------------------|
|----------------------|-------------------|
|----------------------|-------------------|
|
|   E  E E E E E +E  E    E E E E  E E E E
|----------------------|-------------------|
|----------------------|-------------------|
|---0--0-0-0-0---------|-------------------|
|--------------3-(3)-3-|--1-1-1-1--1-1-1-1-|


   H        H          H        E  E  Q
|-------------------|---------------------|
|-15----------------|-17-------------17---|
|----------16-------|-------------17------|
|-------------------|----------17---------|
|-------------------|---------------------|
|-------------------|---------------------|
|
|  E E E E  E E E E    E E E E  E  E  E E
|-------------------|---------------------|
|-------------------|---------------------|
|-------------------|--3-3-3-3--3--3--3-3-|
|--3-3-3-3--3-3-3-3-|---------------------|


   W                  W                  W                  W
|-15---------------|-13---------------|-15---------------|-------|
|------------------|------------------|------------------|-17----|
|------------------|------------------|------------------|-------|
|------------------|------------------|------------------|-------|
|------------------|------------------|------------------|-------|
|------------------|------------------|------------------|-------|
|
|  E E E E E E E E    E E E E E E E E    E E E E E E E E    W
|------------------|------------------|------------------|-------|
|------------------|------------------|------------------|-------|
|--3-3-3-3-3-2-0---|------------------|------------------|-------|
|----------------3-|--1-1-1-1-1-1-1-1-|--3-3-3-3-3-2-3-4-|--5----|


   +W            Q     E  E   E   E  Q
|-------------|-------------------------|
|-(17)--------|-------------------------|
|-------------|---------------------14--|
|-------------|------------------15-----|
|-------------|--------------15---------|
|-------------|----------17-------------|
|
| Gtr II
|   W            E  E  Q     +H
|-------------|-------------------------|
|-------------|-------------------------|
|-------------|-------------------------|
|-------------|-------15----(15)--------|
|-------------|----15-------------------|
|-------------|-13----------------------|
|
| Gtr III
|  +W            W
|-------------|-------------------------|
|-------------|-------------------------|
|-------------|-------------------------|
|--(5)--------|-------------------------|


   Q     E  E   E   E  Q     Q     E  E   E   E  E  E
|-------------------------|---------------------12----|
|---------------------12--|------------------13-------|
|------------------12-----|--------------12-----------|
|--------------12---------|----------14------------14-|
|----------14-------------|---------------------------|
|-------------------------|---------------------------|
|
|  E  E  Q     +H            E  E  Q     +H
|-------------------------|---------------------------|
|-------------------------|---------------------------|
|-------------------------|-------17----(17)----------|
|-------17----(17)--------|----17---------------------|
|----17-------------------|-15------------------------|
|-15----------------------|---------------------------|
|
|  W                         W
|-------------------------|---------------------------|
|-------------------------|---------------------------|
|-------------------------|---------------------------|
|-------------------------|---------------------------|


    E   E  E  E  E  E  E  E    Q     E  E   E   E  Q
|---------------------------|-------------------------|
|--15--------17-------------|-------------------------|
|---------------------------|---------------------14--|
|------17-------17----21----|------------------15-----|
|---------19-------19----19-|--------------15---------|
|---------------------------|----------17-------------|
|
|  +W                          E  E  Q     +H
|---------------------------|-------------------------|
|---------------------------|-------------------------|
|-(17)----------------------|-------------------------|
|---------------------------|-------15----(15)--------|
|---------------------------|----15-------------------|
|---------------------------|-13----------------------|


   Q     E  E   E   E  Q     H            E   E  E  E
|-------------------------|---------------------------|
|---------------------12--|------------------------12-|
|------------------12-----|---------------------12----|
|--------------12---------|--------------14--12-------|
|----------14-------------|---------------------------|
|-------------------------|---------------------------|
|
|  E  E  Q     +H            E  E  E  E  +H
|-------------------------|---------------------------|
|-------------------------|---------------------------|
|-------------------------|---------------------------|
|-------17----(17)--------|-------19------------------|
|----17-------------------|----19---------------------|
|-15----------------------|-17-------17-(17)----------|


    E   E  E  E  E  E  E  E   Q   E E  E  E Q
|---------------------------|-------------1-5--|
|---------------------------|----------1-------|
|---------------------------|-------2----------|
|------------17-------------|------------------|
|--12--14-15-------19-------|------------------|
|---------------17----20-22-|------------------|
|
|  +H.                 Q      E E Q   +H
|---------------------------|-----1---(1)------|
|---------------------------|---1--------------|
|---------------------------|------------------|
|----------------------2----|-3----------------|
|---------------------------|------------------|
|-(17)----------------------|------------------|


  Q   E E  E  E  Q    Q   E E  E   E  E  E
|-------------3-10--|-------------12-15----|
|----------3--------|----------8-----------|
|-------4-----------|-------9--------------|
|-------------------|-------------------14-|
|-------------------|----------------------|
|-------------------|----------------------|
|
| E E Q   +H          E E Q   +H
|-----3---(3)-------|---3-8---(8)----------|
|---3---------------|-1--------------------|
|-0-----------------|----------------------|
|-------------------|----------------------|
|-------------------|----------------------|
|-------------------|----------------------|


   E   E  E  E  E  E  E  E   Q     E  E   E   E  Q
|--------------------------|------------------------|
|-15--------17-------------|------------------------|
|--------------------------|--------------------14--|
|-----17-------17----21----|-----------------15-----|
|--------19-------19----19-|-------------15---------|
|--------------------------|---------17-------------|
|
| +W                         E  E  Q     +H
|-(8)----------------------|------------------------|
|--------------------------|------------------------|
|--------------------------|------10----(10)--------|
|--------------------------|---10-------------------|
|--------------------------|-8----------------------|
|--------------------------|------------------------|


  Q   E  E  E  E  +Q      Q   E  E  E  E E E
|-------------10-(10)---|--------------------|
|-----------------------|----------------8---|
|----------12-----------|--------------8---8-|
|-------12--------------|-----------8--------|
|-----------------------|-------10-----------|
|-----------------------|--------------------|
|
| E E H            E  E   E E Q    +H
|-----------------------|--------------------|
|-----8------------8--6-|--------------------|
|---7-------------------|-----8----(8)-------|
|-9---------------------|---8----------------|
|-----------------------|-6------------------|
|-----------------------|--------------------|


  Q     E E E E +E  E   H        E  E E E
|---------------------|-------------------|
|-------------6-(6)-6-|-----------------6-|
|-----------5---------|---------------7---|
|---------7-----------|----------7--8-----|
|---------------------|-------------------|
|---------------------|-------------------|
|
| E  E  H        Q      E E E E +H
|---------------------|-----6-------------|
|---------------------|---6---6-(6)-------|
|------10-------------|-------------------|
|---10----------10----|-8-----------------|
|-8-------------------|-------------------|
|---------------------|-------------------|


   E  E E  E  E  E  E  E    Q.      E  +H
|--5------10-------------|------------------------|
|-----3------------15----|------------------------|
|-------3----------------|------------------------|
|------------12----------|-17------17-(17)--------|
|---------------13----17-|-18------18-(18)--------|
|------------------------|-18------18-(18)--------|
|
| +W                        E  E E  E   E  E  E E
|------------------------|------------------------|
|-(6)--------------------|------------------------|
|------------------------|-------8----------------|
|------------------------|-----8----8------8----8-|
|------------------------|--6----------10----10---|
|------------------------|------------------------|


   Q.        E  +E   E +Q        Q     E E   E  E E E
|-----------------------------|-------------------1-5-|
|--------------------4-(4)----|-----------------3-----|
|--------------------5-(5)----|----------2---3--------|
|-15--------15-(15)--7-(7)----|-----------------------|
|-15--------15-(15)-----------|-----------------------|
|-17--------17-(17)-----------|-----------------------|
|
|  E   E  E  E   E   E  E   E    E  E  Q    +H
|-----------------------------|-----------------------|
|-----------------------------|-----------------------|
|--------10---------10-----10-|-------12---(12)-------|
|-----10--------10-----10-----|----12-----------------|
|--8---------8----------------|-10--------------------|
|-----------------------------|-----------------------|


    H             H              Q   E  E E  E  +Q
|---6------------10-----------|-------------11-(11)--|
|-----------------------------|-----------9----------|
|-----------------------------|--------10------------|
|-----------------------------|----------------------|
|-----------------------------|----------------------|
|-----------------------------|----------------------|
|
|  +E   E  E  E  +E   E  E  E    E E H           Q
|-----------------------------|------9-----------9---|
|-----------------------11----|----9-----------------|
|-(12)----12---------12----12-|----------------------|
|------12----12-(12)----------|-11-------------------|
|-----------------------------|----------------------|
|-----------------------------|----------------------|


   W                          Q.        E  +H
|--------------------------|----------------------------|
|-11-----------------------|-11---------9--(9)----------|
|-12-----------------------|-10---------8--(8)----------|
|-13-----------------------|-10--------10-(10)----------|
|--------------------------|----------------------------|
|--------------------------|----------------------------|
|
|  E  E  +E  E +E  E  E  E    E   E  Q     +E   E  E  E
|------------9-(9)-9----11-|-------------------16-18----|
|----11-(11)---------11----|-------------------------20-|
|--------------------------|--------13----(13)----------|
|-10-----------------------|-----13---------------------|
|--------------------------|-11-------------------------|
|--------------------------|----------------------------|


   +H            E  E  +Q     Q.      E  +Q    E E
|---------------------------|----------------------|
|--(9)-----------9--8--(8)--|-8-------9--(9)-----9-|
|--(8)-----------8--8--(8)--|-7------10-(10)--10---|
|-(10)----------10-10-(10)--|--------11-(11)-------|
|------------------11-(11)--|----------------------|
|---------------------------|----------------------|
|
|   E   E  E  E  H            E  E Q     +H
|---------------------------|----------------------|
|---------------------------|----------------------|
|------------17-------------|------6-----(6)-------|
|--18--17-18----------------|----6-----------------|
|---------------------------|-4--------------------|
|---------------------------|----------------------|


  Q.     E +E  E +Q     H       +E  E E E
|---------------------|-------------------|
|-8------8-(8)-8-(8)--|-9-------(9)-------|
|-8------8-(8)-8-(8)--|-9-------(9)-----9-|
|-8------8-(8)-8-(8)--|-9-------(9)-8-9---|
|---------------------|-------------------|
|---------------------|-------------------|
|
| E  E Q   +H           E E E E  H
|---------------------|-------------------|
|---------------------|-------------------|
|------8---(8)--------|-----9----7--------|
|----8----------------|---9---9-----------|
|-6-------------------|-7-----------------|
|---------------------|-------------------|


  H       +E  E E E   H       +E  E E E
|-------------------|-------------------|
|-9-------(9)-------|-9-------(9)-------|
|-9-------(9)-----9-|-9-------(9)-----9-|
|-9-------(9)-8-9---|-9-------(9)-8-9---|
|-------------------|-------------------|
|-------------------|-------------------|
|
| E E E E  H          E E E E  H
|-------------------|-------------------|
|-------------------|-------------------|
|-----9----7--------|-----9----7--------|
|---9---9-----------|---9---9-----------|
|-7-----------------|-7-----------------|
|-------------------|-------------------|


   E  E  E  E  +E   E  E  E    E  E  +E   E  E  E  E  E
|-16-22----24-(24)-22----22-|----24-(24)-22----22----24-|
|-------24------------21----|-24------------21----24----|
|---------------------------|---------------------------|
|---------------------------|---------------------------|
|---------------------------|---------------------------|
|---------------------------|---------------------------|
|
|  E  E  E  E  +E   E  E  E    E  E  +E   E  E  E  E  E
|----10----12-(12)-10----10-|----12-(12)-10----10----12-|
|--9----12-------------9----|-12-------------9----12----|
|---------------------------|---------------------------|
|---------------------------|---------------------------|
|---------------------------|---------------------------|
|---------------------------|---------------------------|
|
| Gtr III
|  W                           W
|---------------------------|---------------------------|
|---------------------------|---------------------------|
|---------------------------|---------------------------|
|---------------------------|---------------------------|


   +E   E Q  H       W
|-(24)-22---------|------------------|
|-----------------|------------------|
|-----------------|------------------|
|-----------------|-22---------------|
|-----------------|------------------|
|-----------------|------------------|
|
|  +E   E Q  H       W
|-(12)-10---------|------------------|
|-----------------|------------------|
|-----------------|------------------|
|-----------------|------------------|
|-----------------|------------------|
|-----------------|------------------|
|
|   W                E E E E E E E E
|-----------------|------------------|
|-----------------|------------------|
|-----------------|------------------|
|-----------------|--1-1-1-1-1-1-1-1-|


   W                  H        E  E  Q      W                  W
|------------------|---------------------|------------------|------------------|
|------------------|---------------------|-20---------------|-18---------------|
|------------------|-21-------------21---|------------------|------------------|
|-24---------------|-------------22------|------------------|------------------|
|------------------|----------22---------|------------------|------------------|
|------------------|---------------------|------------------|------------------|
|
| Gtr III
|  E E E E E E E E    E E E E  E  E  E E    E E E E E E E E    E E E E E E E E
|------------------|---------------------|------------------|------------------|
|------------------|---------------------|------------------|------------------|
|------------------|--3-3-3-3--3--3--3-3-|--3-3-3-3-3-2-0---|------------------|
|--3-3-3-3-3-3-3-3-|---------------------|----------------3-|--1-1-1-1-1-1-1-1-|


   W                  W
|------------------|------------------|
|------------------|-17---------------|
|-19---------------|------------------|
|------------------|------------------|
|------------------|------------------|
|------------------|------------------|
|
|  E E E E E E E E    E E E E E E E E
|------------------|------------------|
|------------------|------------------|
|------------------|--0-0-0-0-0-0-0-0-|
|--3-3-3-3-3-3-3-3-|------------------|


   +H.            Q       H        H
|----------------17----|-15-------13-------|
|-(17)-----------------|-------------------|
|----------------------|-------------------|
|----------------------|-------------------|
|----------------------|-------------------|
|----------------------|-------------------|
|
|   E  E E E E E +E  E    E E E E  E E E E
|----------------------|-------------------|
|----------------------|-------------------|
|---0--0-0-0-0---------|-------------------|
|--------------3-(3)-3-|--1-1-1-1--1-1-1-1-|


   H        H          H        E  E  Q
|-------------------|---------------------|
|-15----------------|-17-------------17---|
|----------16-------|-------------17------|
|-------------------|----------17---------|
|-------------------|---------------------|
|-------------------|---------------------|
|
|  E E E E  E E E E    E E E E  E  E  E E
|-------------------|---------------------|
|-------------------|---------------------|
|-------------------|--3-3-3-3--3--3--3-3-|
|--3-3-3-3--3-3-3-3-|---------------------|


   W                  W
|-15---------------|-13---------------|
|------------------|------------------|
|------------------|------------------|
|------------------|------------------|
|------------------|------------------|
|------------------|------------------|
|
|  E E E E E E E E    E E E E E E E E
|------------------|------------------|
|------------------|------------------|
|--3-3-3-3-3-2-0---|------------------|
|----------------3-|--1-1-1-1-1-1-1-1-|


   H        H          W
|-15----------------|------------------------------|
|----------17-------|------------------------------|
|-------------------|------------------------------|
|-------------------|------------------------------|
|-------------------|-19---------------------------|
|-------------------|------------------------------|
|
|  E E E E  E E E E    E S S S S S S E S S S S S S
|-------------------|------------------------------|
|-------------------|------------------------------|
|-------------------|------------------------------|
|--3-3-3-3--3-3-3-3-|--1-1-1-1-1-1-1-1-1-1-1-1-1-1-|


   +H               H
|----------------------------------|
|----------------------------------|
|--------------------------------





Comments


Popular X Japan tabs & chords
Alive 2 Bass Tabs
Dahlia Bass Tabs
Ill Kill You Bass Tabs
Kurenai Bass Tabs
Tears Chords
Easy Fight Rambling Tabs
Forever Love Tabs
Joker Tabs
Love Replica 1 Tabs
Unfinished Tabs


Song lyrics



↑ Back to top | Tablatures and chords are parodies/interpretations of the original songs. You may use it for private study, scholarship, research or language learning purposes only
© 2014 AZChords.com Contact us | Privacy policy | DMCA | Add/correct tabs | Request tabs | Top 50 tabs