>
 >
Dead And Still In Pain 2

Dead And Still In Pain 2 Guitar Tabs

World Under Blood - Dead And Still In Pain 2 chords, tabs, tablatures, lyrics

Guitar lessons | Add/correct | Request | Top 50 tabs Artists:  A B C D E F G H I J K L M N O P Q R S T U V W X Y Z 0-9

Dead And Still In Pain 2 Guitar Tabs – World Under Blood

CD, Sheet music, Poster

Do you like Dead And Still In Pain 2? Share with your friends now
Bass TabsTabsTabs v2Tabs v3
D||----------------------------------------|
A||------------------10-10-----10-10-12-12-|
F||------7-7-----7-7-----------------------|
C||--9-9-----9-9-----------7-7-------------|
G||----------------------------------------|
D||----------------------------------------|


                                          verse                       
  S S S S S S S S  S  S S S S S S S  4x   E     E  E  E  E  E  E  E   
-------------------------------------||------------------------------|
-------------------------------------||------------------------------|
------9-9-----9-9-11-11-----7-7-9-9-*||*--------7--------7-----6-----|
--5-5-----5-5-----------5-5---------*||*--------------9--------------|
-------------------------------------||---------------------5-----5--|
-------------------------------------||---7--------7-----------------|


                             verse                       
  E  E  E  E  E  E  E  E     E     E  E  E  E  E  E  E   
--------------------------|-----------------------------|
--------------------------|-----------------------------|
-----------6--7-----------|--------7--------7-----6-----|
--9--7--------------9--7--|--------------9--------------|
--------0--------0--------|--------------------5-----5--|
--------------------------|--7--------7-----------------|


  E  E  E  E  E  E  E  E        S S S S S S S S  S  S S S  S  S  S  S  
---------------------------||-----------------------------------------|
---------------------------||-------------------10-10-----10-10-12-12-|
-----------6--7-----------*||*------7-7-----7-7-----------------------|
--9--7--------------9--7--*||*--9-9-----9-9-----------7-7-------------|
--------0--------0---------||-----------------------------------------|
---------------------------||-----------------------------------------|


                                          verse                       
  S S S S S S S S  S  S S S S S S S  3x   E     E  E  E  E  E  E  E   
-------------------------------------||------------------------------|
-------------------------------------||------------------------------|
------9-9-----9-9-11-11-----7-7-9-9-*||*--------7--------7-----6-----|
--5-5-----5-5-----------5-5---------*||*--------------9--------------|
-------------------------------------||---------------------5-----5--|
-------------------------------------||---7--------7-----------------|


                             verse                       
  E  E  E  E  E  E  E  E     E     E  E  E  E  E  E  E   
--------------------------|-----------------------------|
--------------------------|-----------------------------|
-----------6--7-----------|--------7--------7-----6-----|
--9--7--------------9--7--|--------------9--------------|
--------0--------0--------|--------------------5-----5--|
--------------------------|--7--------7-----------------|


  E  E  E  E  E  E  E  E   4x
---------------------------||
---------------------------||
-----------6--7-----------*||
--9--7--------------9--7--*||
--------0--------0---------||
---------------------------||


   |-3-| |-3-| |-3-| |-3-| |-3-| |-3-| |-3-| |-3-|  
   S S S S S S S S S S S S S S S S S S S S S S S S  
---------------------------------------------------|
---------------------------------------------------|
*--------------------------------------------------|
*--------4-4-4-------------------------------------|
---2-2-2-------5-5-5-4-4-4-------------2-2-2-------|
---------------------------2-2-2-5-5-5-------3-3-3-|


  |---5---| |---5---| |---5---| |---5---|    
  S S S S S S S S S S S S S S S S S S S S  4x
-------------------------------------------||
-------------------------------------------||
------------------------------------------*||
------------------------------------------*||
-------------------------------------------||
--2-2-2-2---2-2-2-2---0-0-0-0---0-0-0-0----||


   Chorus                                                         
   S      S S S S S Q    E  S S E     S S S S S S Q    E  S S E   
-----------------------------------|-----------------------------|
-----------------------------------|-----------------------------|
*----------------------------------|-----------------------------|
*-------------------------------7--|--------------------------7--|
--------------------5-------5-7----|--------------9-------7-9----|
--------7-7-7-7-7-7------7---------|--5-5-5-5-5-5------5---------|


  S S S S S S Q    E  S S E     S S S S S S S S S S S S E  E   4x
-----------------------------|---------------------------------||
-----------------------------|---------------------------------||
-----------------------------|--------------------------------*||
--------------------------7--|--------------------------------*||
--------------5-------5-7----|--------------------------4--0---||
--7-7-7-7-7-7------7---------|--2-2-2-2-2-2-2-2-2-2-2-2--------||


   S S S S S S S S  S  S S S  S  S  S  S  
-----------------------------------------|
-------------------10-10-----10-10-12-12-|
*------7-7-----7-7-----------------------|
*--9-9-----9-9-----------7-7-------------|
-----------------------------------------|
-----------------------------------------|


                                          verse                       
  S S S S S S S S  S  S S S S S S S       E     E  E  E  E  E  E  E   
-------------------------------------||------------------------------|
-------------------------------------||------------------------------|
------9-9-----9-9-11-11-----7-7-9-9-*||*--------7--------7-----6-----|
--5-5-----5-5-----------5-5---------*||*--------------9--------------|
-------------------------------------||---------------------5-----5--|
-------------------------------------||---7--------7-----------------|


                             verse                       
  E  E  E  E  E  E  E  E     E     E  E  E  E  E  E  E   
--------------------------|-----------------------------|
--------------------------|-----------------------------|
-----------6--7-----------|--------7--------7-----6-----|
--9--7--------------9--7--|--------------9--------------|
--------0--------0--------|--------------------5-----5--|
--------------------------|--7--------7-----------------|


                                solo                       
  E  E  E  E  E  E  E  E        E    E  E  E  E  E  E  E   
---------------------------||-----------------------------|
---------------------------||-----------------------------|
-----------6--7-----------*||*-------7--------7-----6-----|
--9--7--------------9--7--*||*-------------9--------------|
--------0--------0---------||--------------------5-----5--|
---------------------------||---7-------7-----------------|


                             verse                       
  E  E  E  E  E  E  E  E     E     E  E  E  E  E  E  E   
--------------------------|-----------------------------|
--------------------------|-----------------------------|
-----------6--7-----------|--------7--------7-----6-----|
--9--7--------------9--7--|--------------9--------------|
--------0--------0--------|--------------------5-----5--|
--------------------------|--7--------7-----------------|


                                Chorus                           
  E  E  E  E  E  E  E  E        S      S S S S S Q    E  S S E   
---------------------------||-----------------------------------|
---------------------------||-----------------------------------|
-----------6--7-----------*||*----------------------------------|
--9--7--------------9--7--*||*-------------------------------7--|
--------0--------0---------||--------------------5-------5-7----|
---------------------------||---7------7-7-7-7-7------7---------|


  S S S S S S Q    E  S S E     S S S S S S Q    E  S S E   
-----------------------------|-----------------------------|
-----------------------------|-----------------------------|
-----------------------------|-----------------------------|
--------------------------7--|--------------------------7--|
--------------9-------7-9----|--------------5-------5-7----|
--5-5-5-5-5-5------5---------|--7-7-7-7-7-7------7---------|


  S S S S S S S S S S S S E  E   4x   E   E   E   E   E   Q     E   
---------------------------------||--------------------------------|
---------------------------------||---7--10--12--12--10--12----10--|
--------------------------------*||*-------------------------------|
--------------------------------*||*-------------------------------|
--------------------------4--0---||--------------------------------|
--2-2-2-2-2-2-2-2-2-2-2-2--------||--------------------------------|


  E   E   E   E   E   Q     E     E   E  E  E  E  Q    E   
-------------------------------|--------------------------|
--7--10--12--12--10--12----10--|--7--10-------------------|
-------------------------------|---------6--7--9----------|
-------------------------------|------------------7----7--|
-------------------------------|--------------------------|
-------------------------------|--------------------------|


  E  E  E  E  E  Q.      8x
-------------------------||
-------------------------||
--9-----6--7--9---------*||
-----7-----------7------*||
-------------------------||
-------------------------||





Comments


Popular World Under Blood tabs & chords
Dead And Still In Pain Bass Tabs
Dead And Still In Pain Tabs
Dead And Still In Pain 1 Tabs
God Among The Waste Tabs
Into The Arms Of Cruelty Tabs
Under The Autumn Low Tabs


Song lyrics



↑ Back to top | Tablatures and chords are parodies/interpretations of the original songs. You may use it for private study, scholarship, research or language learning purposes only
© 2014 AZChords.com Contact us | Privacy policy | DMCA | Add/correct tabs | Request tabs | Top 50 tabs