» » »

World Under Blood, Dead And Still In Pain Tabs (ver.1)

Artists:  A B C D E F G H I J K L M N O P Q R S T U V W X Y Z # 

Dead And Still In Pain Tabs (ver.1)

World Under Blood Tabs
Rating:
3/5 (2 votes)
Dead And Still In Pain lessons Tabs too difficult? Try these video lessons and learn fast
                ----------------------------------------------------------------------------
----------------------------------------------------------------------------

Tuning: DGCFAd

Intro Riff: 
(Guitar 2 plays an octave higher)
d|-------------------------------------------------------------------------|
A|-------------------------------------------------------------------------|
F|-------------------------------------------------------------------------|
C|-----------------7777----77779999----------------------------------------|
G|-2222555522225555----5555------------7777----77779999----55557777--------|
D|---------------------------------3333----3333--------3333----------------|

Verse Riff:
d|-------------------------------------------------------------------------|
A|-------------------------------------------------------------------------|
F|-------------------------------------------------------------------------|
C|---12---11-12---11-7-11-12----11-12---9-7--------------------------------|
G|---------------------------12-------0------------------------------------|
D|-7----7-------7----------------------------------------------------------|

d|-------------------------------------------------------------------------|
A|-------------------------------------------------------------------------|
F|-------------------------------------------------------------------------|
C|---12---11-12---11-7-11-12----14-16----14-12-----------------------------|
G|---------------------------12-------12-----------------------------------|
D|-7----7-------7----------------------------------------------------------|

Bridge Riff:
d|-------------------------------------------------------------------------|
A|-------------------------------------------------------------------------|
F|-------------------------------------------------------------------------|
C|-----4444----------------------------------------------------------------|
G|-2222----55554444--------22224444-9999-9999-7777-7777--------------------|
D|-----------------22225555------------------------------------------------|

d|-------------------------------------------------------------------------|
A|-------------------------------------------------------------------------|
F|-------------------------------------------------------------------------|
C|-----4444----------------------------------------------------------------|
G|-2222----55554444--------2222-----9999-9999-7777-7777--------------------|
D|-----------------22225555----2222----------------------------------------|

d|-------------------------------------------------------------------------|
A|-------------------------------------------------------------------------|
F|-------------------------------------------------------------------------|
C|-----4444----------------------------------------------------------------|
G|-2222----55554444--------22224444-9999-10101010-7777-7777----------------|
D|-----------------22225555------------------------------------------------|

d|-------------------------------------------------------------------------|
A|-------------------------------------------------------------------------|
F|-------------------------------------------------------------------------|
C|-----4444----------------------------------------------------------------|
G|-2222----55554444---------2222-----9999-10101010-7777-7777---------------|
D|-----------------2222-5555----2222---------------------------------------|

Chorus Riff:
d|-------------------------------------------------------------------------|
A|-------------------------------------------------------------------------|
F|-------------------------------------------------------------------------|
C|-----------------------7-----------------------7~------------------------|
G|-------------5~----5-7---------------9~----7-9---------------------------|
D|-7-7-7-7-7-7---7-7-------5-5-5-5-5-5---5-5-------------------------------|

d|-------------------------------------------------------------------------|
A|-------------------------------------------------------------------------|
F|-------------------------------------------------------------------------|
C|-----------------------7-------------------------------------------------|
G|-------------5~----5-7---------------------------------------------------|
D|-7-7-7-7-7-7---7-7-------2-2-2-2-2-2-2-2-2-2-2-2-7-9-5-5-----------------|

Outro Riff: (play 4 times, then play with tremolo picking)
Guitar 1
d|-------------------------------------------------------------------------|
A|-------------------------------------------------------------------------|
F|-------------------------------------------------------------------------|
C|-------------------------------------------------------------------------|
G|-7-7-5-7-5---5-7-7-5-7-5---5-5-5-7---5-5-7-----7-5-----------------------|
D|-----------7-------------7---------5~------5~5---------------------------|

Guitar 2
d|-------------------------------------------------------------------------|
A|-------------------------------------------------------------------------|
F|-------------------------------------------------------------------------|
C|-9-9-7-9-7---7-9-9-7-9-7---7-7-7-9---7-7-9-----9-7-----------------------|
G|-----------9-------------9---------7~------7~7---------------------------|
D|-------------------------------------------------------------------------|

Guitar 3
d|-------------------------------------------------------------------------|
A|-------------------------------------------------------------------------|
F|-9-9-7-9-7---7-9-9-7-9-7---7-7-7-9---7-7-9-----9-7-----------------------|
C|-----------9-------------9---------7~------7~7---------------------------|
G|-------------------------------------------------------------------------|
D|-------------------------------------------------------------------------|


| /  slide up
| \  slide down
| h  hammer-on
| p  pull-off
| ~  vibrato
| +  harmonic
| x  Mute note
============================================================================
            
Submit corrections

comments powered by Disqus
↑ Back to top | World Under Blood Tabs for Dead And Still In Pain. Lyrics for acoustic guitar and electric guitar. Tablatures and chords are parodies/interpretations of the original songs. You may use it for private study, scholarship, research or language learning purposes only