» » »

Dead And Still In Pain Tabs (ver.2)

Artists:  A B C D E F G H I J K L M N O P Q R S T U V W X Y Z # 

Dead And Still In Pain Tabs (ver.2)

World Under Blood
Rating:
0/5 (0 votes)

Hard to play? Try these video lessons and learn fast.
                World Under Blood
Dead and still in pain

Ive noticed that there hasnt been any full tabs for this song so i
decided to tab it.


intro

---------------------------------------------------|
---------------------------------------------------|
---------------------------------------------------|
-------------------------5-5-5-------5-5-5--7-7-7--|
-------3-3-3-------3-3-3---------------------------|
-5-5-5-------5-5-5-------------3-3-3---------------|

---------------------------------------------------|
---------------------------------------------------|
---------------------------------------------------|
---------------------------------------------------|
------5-5-5-------5-5-5--7-7-7-------3-3-3--5-5-5--|
0-0-0-------0-0-0--------------0-0-0---------------|

or

an easier way
----------------------------------------|
----------------------------------------|
----------------------------------------|
--------5---5--7------------------------|
--3---3--------------5----5--7-----3--5-|
5---5-----3-------0----0--------0-------|


Verse 1
-------------------------------------------------------|
-------------------------------------------------------|
-----------------------------------4/5-----------------|
----10------7/10-----9-----7/5---------------7/5-------|
-------------------------------------------------------|
-5------5---------8-----8-------3--------3-------------|


pre chorus:

---------------------------------------------------|
---------------------------------------------------|
---------------------------------------------------|
-----2--------------------------7--7--5--5---------|
-0-------3---2----------0---2---5--5--3--3---------|
----------------2---5------------------------------|
(variation)
---------------------------------------------------|
---------------------------------------------------|
---------------------------------------------------|
-----2-------------------------7--7--5--5----------|
-0-------3---2----------0------5--5--3--3----------|
----------------2---5-------2----------------------|

Chorus: (easy way)
------------------------------------------------------------------|
------------------------------------------------------------------|
------------------------------------------------------------------|
-------------0-5--------------0-5--------------0-5------------2---|
-0-0-0-3-0-3------------7---3------0-0-0-3-0-3------------------3-|
------------------5-5-5---5------------------------2-2-2-2-2-2----|

solo  (not complete i'll post more later) :

---------------------------------------------------|
---------------------------------------------------|
----0--2--2--0--2-----0-----0--2--2--0--2--0-----0-|
--2----------------------2--------------------2----|
---------------------------------------------------|
---------------------------------------------------|

end
            
Hard to play? Try these video lessons and learn fast. | Correct




comments powered by Disqus
↑ Back to top | Tablatures and chords are parodies/interpretations of the original songs. You may use it for private study, scholarship, research or language learning purposes only