» » »

Dead And Still In Pain Bass tabs (ver.1)

Artists:  A B C D E F G H I J K L M N O P Q R S T U V W X Y Z # 

Dead And Still In Pain Bass tabs (ver.1)

World Under Blood
Rating:
0/5 (0 votes)

Hard to play? Try these video lessons and learn fast.
                World Under Blood
Dead and Still in Pain
Bass Tab

intro:
----------------------------------------|
--------5---5--7------------------------|
--3---3--------------5----5--7-----3--5-|
5---5-----3-------0----0--------0-------|

verse:

-----------------------------------4/5-----------|
----10------7/10-----9-----7/5---------------7/5-|
-------------------------------------------------|
-5------5---------8-----8-------3--------3-------|

Pre chorues:

------------------------------------------|
-----2------------------------------------|
-0-------3---2----------0------5--5--3--3-|
----------------2---5-------2-------------|

chorus:

------------------------------------------------------------------|
-------------0-5--------------0-5--------------0-5------------2---|
-0-0-0-3-0-3------------7---3------0-0-0-3-0-3------------------3-|
------------------5-5-5---5------------------------2-2-2-2-2-2----|
            
Hard to play? Try these video lessons and learn fast. | Correct




comments powered by Disqus
↑ Back to top | Tablatures and chords are parodies/interpretations of the original songs. You may use it for private study, scholarship, research or language learning purposes only