» » »

Wheatus, Teenage Dirtbag Tabs (ver.8)

Artists:  A B C D E F G H I J K L M N O P Q R S T U V W X Y Z # 

Teenage Dirtbag Tabs (ver.8)

Wheatus Tabs
 Rating:
4/5 (4 votes)
Teenage Dirtbag lessons Tabs too difficult? Try these video lessons and learn fast
1
                Wheatus,Teenage Dirtbag.
  
Wheatus – Teenage Dirtbag

This is my very first tab, so excuse me if there is a little error in it, but there isn’t.
This song is normally played without bass guitar. The singer-guy plays it all on 1 guitar. These tabs are made for playing with bass guitar and electric guitar. (much easier)
 
Electric guitar:

Intro:
E|---0-----0-----0-----0---|  
B|---0-----0-----0-----0---|  
G|-------------------------|  2x
D|-------------------------|  
A|-------------------------|  
E|-------------------------|  

Her name is Noel …
E|---0-----0-----0-----0---|  
B|---0-----0-----0-----0---|  
G|-------------------------|  3x
D|-------------------------|  
A|-------------------------|  
E|-------------------------|  

How does she know who I am …
E|---0-----0-----0-----0---|  
B|---0-----0-----0-----0---|  
G|-------------------------|  2x
D|-------------------------|  
A|-------------------------|  
E|-------------------------|  

I ‘m just a teenage dirtbag …
E|----------------------------------------|  
B|----------------------------------------|  
G|-----------22-----44--------------------|  
D|----22-----22-----44---------6----------|  3x
A|----22-----00-----22-----/4--------6----|  
E|----00--------------------------4-------|  

E|---------------------------------------------------|  
B|---------------------------------------------------|  
G|-----------22-----44-------------------------------|  1x
D|----22-----22-----44---------6---------------------|  
A|----22-----00-----22-----/4--------6-----7-----9---|  
E|----00--------------------------4-----5-----7------|

Oh yeah, dirtbag, no she doesn’t know …
E|-----0------0------0-------------------------------|  
B|-----0------0------0-------------------------------|  
G|----42-----42-----42-------------------------------|  2x
D|--2242---2242---2242---------6---------------------|  
A|--2220---2220---2220-----/4--------6-----7-----9---|  
E|--00-----00-----00--------------4-----5-----7------|

I ‘ve got 2 tickets to …
E|------------------------------------|  
B|------------------------------------|  
G|---------2222-4444------------------|  
D|----2222-2222-4444-------6----------|  3x
A|----2222-0000-2222---/4--------6----|  
E|----0000--------------------4-------|  

E|-----------------------------------------------|  
B|-----------------------------------------------|  
G|---------2222-4444-----------------------------|  1x
D|----2222-2222-4444-------6---------------------|  
A|----2222-0000-2222---/4--------6-----7-----9---|  
E|----0000--------------------4-----5-----7------|

Outro:
E|------------------------------------------------|
B|------------------------------------------------|
G|--------------4--4--------------------2--2------|
D|--2--2--x--x--4--4--x--x--2--2--x--x--2--2------|
A|--2--2--x--x--2--2--x--x--2--2--x--x--0--0------|
E|--0--0--x--x--------x--x--0--0--x--x------------|

E|---------------------------------------------------------0--|
B|---------------------------------------------------------0--|
G|--------------4--4----------------------2----------------1--|
D|--2--2--x--x--4--4--x--x--2----2--------2----------------2--|
A|--2--2--x--x--2--2--x--x--2----2--------0----------------2--|
E|--0--0--x--x--------x--x--0----0-----------4--2--4--2----0--|


Bass Guitar:

Intro:
G|-------------------------|  
D|-------------------------|  2x
A|--------22--------00-----|  
E|---00--------00----------|

Her name is Noel…
G|-------------------------|  
D|-------------------------|  3x
A|--------22--------00-----|  
E|---00--------00----------|

She doesn’t know who …
G|-------------------------|  
D|-------------------------|  2x
A|---44---00---22---22-----|  
E|-------------------------|

I ‘m just a teenage dirtbag …
G|---------------------------------|  
D|------------------------6--------|  3x
A|--------00---22-----/4--------6--|  
E|---00----------------------4-----|
G|------------------------------------------------|  
D|--------------------------6---------------------|  1x
A|----------00----22----/4--------6-----7-----9---|  
E|----00-----------------------4-----5-----7------|

Oh yeah, dirtbag, no she doesn’t know …
G|---------------------------------------------------|  
D|-----2------2------2---------6---------------------|  2x
A|----2------2------2------/4--------6-----7-----9---|  
E|--00-----00-----00--------------4-----5-----7------|

I ‘ve got 2 tickets to …
G|------------------------------------|  
D|-------------------------6----------|  3x
A|---------0000-2222---/4--------6----|  
E|----0000--------------------4-------|  

G|-----------------------------------------------|  
D|-------------------------6---------------------|  1x
A|---------0000-2222---/4--------6-----7-----9---|  
E|----0000--------------------4-----5-----7------|

Outro:
G|------------------------------------------------|
D|--------x--x--------x--x--------x--x------------|
A|--------x--x--2--2--x--x--------x--x--0--0------|
E|--0--0--x--x--------x--x--0--0--x--x------------|

G|------------------------------------------------------------|
D|--------x--x--------x--x------------------------------------|
A|--------x--x--2--2--x--x----------------0-------------------|
E|--0--0--x--x--------x--x--0----0-----------4--2--4--2----0--|
 
            
Submit corrections

comments powered by Disqus
↑ Back to top | Wheatus Tabs for Teenage Dirtbag. Lyrics for acoustic guitar and electric guitar. 1 Tablatures and chords are parodies/interpretations of the original songs. You may use it for private study, scholarship, research or language learning purposes only