» » »

Wheatus, Teenage Dirtbag Tabs (ver.3)

Artists:  A B C D E F G H I J K L M N O P Q R S T U V W X Y Z # 

Teenage Dirtbag Tabs (ver.3)

Wheatus Tabs
Rating:
4/5 (10 votes)
Teenage Dirtbag lessons Tabs too difficult? Try these video lessons and learn fast
                This was my favorite song when it came out, and I just got my guitar,
so I am still damn lousy at it.

Intro & Verse 1

        E          B          E          A    
E|--0-------|---0------|---0------|---0------|
B|----------|----------|----------|----------|
G|-----1-1--|-----4-4--|-----1-1--|-----2-2--|
D|-----2-2--|-----4-4--|-----2-2--|-----2-2--|
A|-----2-2--|-----2-2--|-----2-2--|-----0-0--|
E|-----0-0--|----------|-----0-0--|----------|
           P.M.       P.M.       P.M.       P.M.

      E      B                   
Her name is Noelle
E          A              
I have a dream about her
E             B            
She rings my bell
          E                    A   
I've got gym class in half an hour
E            B                       
Oh how she rocks
E             A                     
Kids in tube socks
E     A       E        B       
She doesn't know who I am
     E     A             E        B   
And she doesn't give a damn about me


Chorus

*IN DISTORTION     
E|------------------------------------------|
B|------------------------------------------|
G|-----1---1------2-2-----4-4---------------|
D|-----2---2------2-2-----4-4-------6---4---|
A|-----2---2------0-0-----2-2----4----2-----|
E|-----0---0--------------------------------|X2
Cause I'm just a teenage dirtbag baby
'Yeah I'm just a teenage dirtbag baby

E|-------------------------------------|---------------------|
B|-------------------------------------|---------------------|
G|--1--1------2-2--4-4-----------------|---------------------|
D|--2--2------2-2--4-4-----6----4---2--|-----6---4---2---4---|
A|--2--2------0-0--2-2---4----2----0---|--4----2---0---2-----|
E|--0--0-------------------------------|---------------------|
   Listen to Iron Maiden baby with me.   Ooh ooh ooh ooh oooh


Verse 2

        E          B          E          A    
E|--0-------|---0------|---0------|---0------|
B|----------|----------|----------|----------|
G|-----1-1--|-----4-4--|-----1-1--|-----2-2--|
D|-----2-2--|-----4-4--|-----2-2--|-----2-2--|
A|-----2-2--|-----2-2--|-----2-2--|-----0-0--|
E|-----0-0--|----------|-----0-0--|----------|
           P.M.       P.M.       P.M.       P.M. 

      E             B    
Her boyfriend's a dick
E            A                  
He brings a gun to school
     E           B              
And he'd simply kick
    E          A             
My ass if he knew the truth
    E           B               
He lives on my block
    E             A        
And he drives and i rock
    E            A         E      B 
But he doesn't know who I am
    E            A           E      B
And he doesn't give a damn about me



Chorus

*IN DISTORTION     
E|------------------------------------------|
B|------------------------------------------|
G|-----1---1------2-2-----4-4---------------|
D|-----2---2------2-2-----4-4-------6---4---|
A|-----2---2------0-0-----2-2----4----2-----|
E|-----0---0--------------------------------|X2
Cause I'm just a teenage dirtbag baby
'Yeah I'm just a teenage dirtbag baby

E|-------------------------------------|---------------------|
B|-------------------------------------|---------------------|
G|--1--1------2-2--4-4-----------------|---------------------|
D|--2--2------2-2--4-4-----6----4---2--|-----6---4---2---4---|
A|--2--2------0-0--2-2---4----2----0---|--4----2---0---2-----|
E|--0--0-------------------------------|---------------------|
   Listen to Iron Maiden baby with me.   Ooh ooh ooh ooh oooh


Bridge X2

E|---------0-----------------0-------|
B|---------0-----------------0-------|
G|---------2-----------------2-------|
D|-2-2-----2---------2-2-----2-------|
A|-2-2--2--0---------2-2--2--0-------|  
E|-0-0---------------0-0-------------|
            Oh Yeah!      Dirtbag!      
|------0--------------------------------------|  
|------0--------------------------------------|
|------2--------------------------------------|
|-22---2----------6------4---------2--------4-|
|-22-2-0-----4--------2-------0---------2-----|
|-00------------------------------------------|
         No she doesn't know what she's missing


Verse 3

        E          B          E          A    
E|--0-------|---0------|---0------|---0------|
B|----------|----------|----------|----------|
G|-----1-1--|-----4-4--|-----1-1--|-----2-2--|
D|-----2-2--|-----4-4--|-----2-2--|-----2-2--|
A|-----2-2--|-----2-2--|-----2-2--|-----0-0--|
E|-----0-0--|----------|-----0-0--|----------|
           P.M.       P.M.       P.M.       P.M.

       E         B            
Man I feel like mold
      E                     A        
It's Prom Night and I am lonely
E         B                        
Lo and behold
E                  A       
She's walking over to me
E             B                  
This must be fake
    E              A           
My lips starts to shake
E              A      E     B    
How does she know who I am
     E            A       E        B  
And why does she give a damn about me

Verse 4

E|--------------------------------------|
B|--------------------------------------|
G|--------------------------------------|
D|----------2-2-2-2--4-4-4-4----6-----4-|
A|-2-2-2-2--0-0-0-0--2-2-2-2--4----2----|
E|-0-0-0-0------------------------------|X2
      E         B        E      A   
I've got two tickets to Iron Maiden baby
E               B           E     A           
Come with me Friday, don't say maybe
E             B       E       A       E   
I'm just a teenage dirtbag baby like you

E|------------------|  
B|------------------|
G|------------------|
D|----6---4---2---4-|
A|--4---2---0---2---|
E|------------------|                                           
Ooh ooh ooh ooh oooh


Bridge X2

E|---------0-----------------0-------|
B|---------0-----------------0-------|
G|---------2-----------------2-------|
D|-2-2-----2---------2-2-----2-------|
A|-2-2--2--0---------2-2--2--0-------|  
E|-0-0---------------0-0-------------|
            Oh Yeah!      Dirtbag!      
|------0--------------------------------------|  
|------0--------------------------------------|
|------2--------------------------------------|
|-22---2----------6------4---------2--------4-|
|-22-2-0-----4--------2-------0---------2-----|
|-00------------------------------------------|
         No she doesn't know what she's missing


Ending
E|-------------------------------------------------------------|
B|-------------------------------------------------------------|
G|-----------4-4-------------2-2-2-2------------4-4------------|
D|-2-2-x-x-x-4-4-x-x-2-2-x-x-2-2-2-2--2-2-x-x-x-4-4-x-x---2-2-x|
A|-2-2-x-x-x-2-2-x-x-2-2-x-x-0-0-x-x--2-2-x-x-x-2-2-x-x-x-2-2-x|
E|-0-0-x-x-------x-x-0-0-x-x-----4-4--0-0-x-x-------x-x-x-0-0-x|

E|-------------|
B|-------------|
G|-------------|
D|-------------|
A|-------------|
E|-5-4-2h4-2-0-|
            
Submit corrections

comments powered by Disqus
↑ Back to top | Wheatus Tabs for Teenage Dirtbag. Lyrics for acoustic guitar and electric guitar. Tablatures and chords are parodies/interpretations of the original songs. You may use it for private study, scholarship, research or language learning purposes only