» » »

Teenage Dirtbag Tabs (ver.1)

Artists:  A B C D E F G H I J K L M N O P Q R S T U V W X Y Z # 

Teenage Dirtbag Tabs (ver.1)

Wheatus
Rating:
1.9/5 (66 votes)

Hard to play? Try these video lessons and learn fast.
                

-|--0----------0-----------0----------0---------|-----------------------------
-|----------------------------------------------|-----------------------------
-|*--------------------------------------------*|-----------------------------
-|*--------------------------------------------*|-----------------------------
-|----------------2--2-------------------0--0---|-----------------------------
-|-----0--0-------------------0--0--------------|-----------------------------
       P.M.       P.M.        P.M.       P.M.          REPEAT 5 TIMES         

-|--0----------0----------0----------0--------|-------------------------------
-|--------------------------------------------|-------------------------------
-|--------------------------------------------|-------------------------------
-|--------------------------------------------|-------------------------------
-|----------------0--0-------2--2-------2--2--|-------------------------------
-|-----4--4-----------------------------------|-------------------------------
       P.M.       P.M.       P.M.       P.M.         REPEAT 2 TIMES           

-------------------|----------------------------------------------------------
-------------------|----------------------------------------------------------
-------------------|--------2-2---4-4-------------------2-2---4-4-------------
-------------------|--2-2---2-2---4-4-----6---4---2-2---2-2---4-4-----6---4---
-------------------|--2-2---0-0---2-2---4---2-----2-2---0-0---2-2---4---2-----
-------------------|--0-0-------------------------0-0-------------------------
  IN DISTORTION                                                               

----------------------------------------------------------------------------|-
----------------------------------------------------------------------------|-
-------------2-2---4-4-------------------2-2---4-4--------------------------|-
-------2-2---2-2---4-4-----6---4---2-2---2-2---4-4-----6----4----2----4-----|-
-------2-2---0-0---2-2---4---2-----2-2---0-0---2-2---4----2----0----2-------|-
-------0-0-------------------------0-0--------------------------------------|-
                                                                              

----------------|----------0-----------0-----------0------------------------|-
----------------|----------0-----------0-----------0------------------------|-
----------------|*---------2-----------2-----------2-----------------------*|-
----------------|*-2-2-----2---2-2-----2---2-2-----2-----6----4----2----4--*|-
----------------|--2-2--2--0---2-2--2--0---2-2--2--0---4----2----0----2-----|-
----------------|--0-0---------0-0---------0-0------------------------------|-
  BRIDGE (2X):                                                                

-|---------------------------------------|----------------------------------|-
-|---------------------------------------|----------------------------------|-
-|*-------------------------------------*|----------------------------------|-
-|*---------2-2-2-2--4-4-4-4----6-----4-*|-----6----4----2----4-------------|-
-|-2-2-2-2--0-0-0-0--2-2-2-2--4----2-----|---4----2----0----2---------------|-
-|-0-0-0-0-------------------------------|----------------------------------|-
   P.M._______REPEAT 3X ________________|    LAST TIME                        

-|------------------------------------------------------------------------0-|-
-|------------------------------------------------------------------------0-|-
-|-----------4-4-------------2-2-2-2------------4-4-----------------------1-|-
-|-2-2-x-x-x-4-4-x-x-2-2-x-x-2-2-2-2--2-2-x-x-x-4-4-x-x---2-2-x-----------2-|-
-|-2-2-x-x-x-2-2-x-x-2-2-x-x-0-0-x-x--2-2-x-x-x-2-2-x-x-x-2-2-x-----------2-|-
-|-0-0-x-x-------x-x-0-0-x-x-----4-4--0-0-x-x-------x-x-x-0-0-x-5-4-2h4-2-0-|-
  ENDING                                                                      
            
Hard to play? Try these video lessons and learn fast. | Correct




comments powered by Disqus
↑ Back to top | Tablatures and chords are parodies/interpretations of the original songs. You may use it for private study, scholarship, research or language learning purposes only