» » »

Wheatus, Teenage Dirtbag Tabs (ver.2)

Artists:  A B C D E F G H I J K L M N O P Q R S T U V W X Y Z # 

Teenage Dirtbag Tabs (ver.2)

Wheatus Tabs
 Rating:
4/5 (22 votes)
Teenage Dirtbag lessons Tabs too difficult? Try these video lessons and learn fast
1
                

This is a really fun song to play. My guitar teacher 
showed me how to play it so I thought I'd tab it.
Go Nutz

-|-0--0---0--0---0--0---0--0--|---0--0---0--0---0--0---0--0--|----------------
-|-0--0---0--0---0--0---0--0--|---0--0---0--0---0--0---0--0--|----------------
-|-1--1---4--4---1--1---2--2--|---6--6---2--2---4--4---4--4--|----------------
-|-2--2---4--4---2--2---2--2--|---6--6---2--2---4--4---4--4--|----------------
-|-2--2---2--2---2--2---0--0--|---4--4---0--0---2--2---2--2--|----------------
-|-0--0----------0--0---------|------------------------------|----------------
  intro/verse five times         pre-chorus twice                             

-|------------------------|-----------------------------------|---------------
-|------------------------|-----------------------------------|---------------
-|------2-2--4-4----------|-------2-2--4-4--------------------|---------------
-|-2-2--2-2--4-4----6-----|--2-2--2-2--4-4-----6--------------|---------------
-|-2-2--0-0--2-2--4-----6-|--2-2--0-0--2-2---4-----6---7---9--|---------------
-|-0-0----------------4---|--0-0-----------------4---5---7----|---------------
  chorus three times            last time of chorus                           

-|---------0-0--|------------------|------------------------------------------
-|---------0-0--|------------------|------------------------------------------
-|------4--2-2--|------------------|------------------------------------------
-|-2-2--4--2-2--|-----6------------|------------------------------------------
-|-2-2--2--0-0--|---4-----6---7---9|------------------------------------------
-|-0-0----------|-------4---5---7--|------------------------------------------
  bridge 3X      end bridge with this                                         

-|-------------------|-----------------------------0-|------------------------
-|-------------------|-----------------------------0-|------------------------
-|------4-4-------2-2|------4-4--------------------1-|------------------------
-|-2-2--4-4--2-2--2-2|-2-2--4-4--2-2---------------2-|------------------------
-|-2-2--2-2--2-2--0-0|-2-2--2-2--2-2---------------2-|------------------------
-|-0-0-------0-0-----|-0-0-------0-0----5-4-2-4-2--0-|------------------------
   outro                                                                      
            
Submit corrections

comments powered by Disqus
↑ Back to top | Wheatus Tabs for Teenage Dirtbag. Lyrics for acoustic guitar and electric guitar. 1 Tablatures and chords are parodies/interpretations of the original songs. You may use it for private study, scholarship, research or language learning purposes only